  0
SECTION
  2
HEADER
  9
$ACADVER
  1
AC1009
  9
$INSBASE
 10
0.0
 20
0.0
 30
0.0
  9
$EXTMIN
 10
-4.131944
 20
-5.166667
 30
0.0
  9
$EXTMAX
 10
4.131944
 20
5.166667
 30
0.0
  9
$LIMMIN
 10
0.0
 20
0.0
  9
$LIMMAX
 10
0.0
 20
0.0
  9
$ORTHOMODE
 70
     0
  9
$REGENMODE
 70
     1
  9
$FILLMODE
 70
     1
  9
$QTEXTMODE
 70
     0
  9
$MIRRTEXT
 70
     1
  9
$DRAGMODE
 70
     2
  9
$LTSCALE
 40
1.0
  9
$OSMODE
 70
     0
  9
$ATTMODE
 70
     1
  9
$TEXTSIZE
 40
0.2
  9
$TRACEWID
 40
0.05
  9
$TEXTSTYLE
  7
STANDARD
  9
$CLAYER
  8
0
  9
$CELTYPE
  6
CONTINUOUS
  9
$CECOLOR
 62
   256
  9
$DIMSCALE
 40
1.0
  9
$DIMASZ
 40
0.18
  9
$DIMEXO
 40
0.0625
  9
$DIMDLI
 40
0.38
  9
$DIMRND
 40
0.0
  9
$DIMDLE
 40
0.0
  9
$DIMEXE
 40
0.18
  9
$DIMTP
 40
0.0
  9
$DIMTM
 40
0.0
  9
$DIMTXT
 40
0.18
  9
$DIMCEN
 40
0.09
  9
$DIMTSZ
 40
0.0
  9
$DIMTOL
 70
     0
  9
$DIMLIM
 70
     0
  9
$DIMTIH
 70
     1
  9
$DIMTOH
 70
     1
  9
$DIMSE1
 70
     0
  9
$DIMSE2
 70
     0
  9
$DIMTAD
 70
     0
  9
$DIMZIN
 70
     0
  9
$DIMBLK
  1

  9
$DIMASO
 70
     1
  9
$DIMSHO
 70
     1
  9
$DIMPOST
  1

  9
$DIMAPOST
  1

  9
$DIMALT
 70
     0
  9
$DIMALTD
 70
     2
  9
$DIMALTF
 40
25.4
  9
$DIMLFAC
 40
1.0
  9
$DIMTOFL
 70
     0
  9
$DIMTVP
 40
0.0
  9
$DIMTIX
 70
     0
  9
$DIMSOXD
 70
     0
  9
$DIMSAH
 70
     0
  9
$DIMBLK1
  1

  9
$DIMBLK2
  1

  9
$DIMSTYLE
  2
STANDARD
  9
$DIMCLRD
 70
     0
  9
$DIMCLRE
 70
     0
  9
$DIMCLRT
 70
     0
  9
$DIMTFAC
 40
1.0
  9
$DIMGAP
 40
0.09
  9
$LUNITS
 70
     2
  9
$LUPREC
 70
     4
  9
$AXISMODE
 70
     0
  9
$AXISUNIT
 10
0.0
 20
0.0
  9
$SKETCHINC
 40
0.1
  9
$FILLETRAD
 40
0.0
  9
$AUNITS
 70
     0
  9
$AUPREC
 70
     0
  9
$MENU
  1
acad
  9
$ELEVATION
 40
0.0
  9
$PELEVATION
 40
0.0
  9
$THICKNESS
 40
0.0
  9
$LIMCHECK
 70
     0
  9
$BLIPMODE
 70
     1
  9
$CHAMFERA
 40
0.0
  9
$CHAMFERB
 40
0.0
  9
$SKPOLY
 70
     0
  9
$TDCREATE
 40
2451806.706562500
  9
$TDUPDATE
 40
2451806.706562500
  9
$TDINDWG
 40
0.0000000000
  9
$TDUSRTIMER
 40
0.0000000000
  9
$USRTIMER
 70
     1
  9
$ANGBASE
 50
0.0
  9
$ANGDIR
 70
     0
  9
$PDMODE
 70
     0
  9
$PDSIZE
 40
0.0
  9
$PLINEWID
 40
0.0
  9
$COORDS
 70
     0
  9
$SPLFRAME
 70
     0
  9
$SPLINETYPE
 70
     6
  9
$SPLINESEGS
 70
     8
  9
$ATTDIA
 70
     0
  9
$ATTREQ
 70
     1
  9
$HANDLING
 70
     1
  9
$HANDSEED
  5
13D
  9
$SURFTAB1
 70
     6
  9
$SURFTAB2
 70
     6
  9
$SURFTYPE
 70
     6
  9
$SURFU
 70
     6
  9
$SURFV
 70
     6
  9
$UCSNAME
  2

  9
$UCSORG
 10
0.0
 20
0.0
 30
0.0
  9
$UCSXDIR
 10
1.0
 20
0.0
 30
0.0
  9
$UCSYDIR
 10
0.0
 20
1.0
 30
0.0
  9
$PUCSNAME
  2

  9
$PUCSORG
 10
0.0
 20
0.0
 30
0.0
  9
$PUCSXDIR
 10
1.0
 20
0.0
 30
0.0
  9
$PUCSYDIR
 10
0.0
 20
1.0
 30
0.0
  9
$USERI1
 70
     0
  9
$USERI2
 70
     0
  9
$USERI3
 70
     0
  9
$USERI4
 70
     0
  9
$USERI5
 70
     0
  9
$USERR1
 40
0.0
  9
$USERR2
 40
0.0
  9
$USERR3
 40
0.0
  9
$USERR4
 40
0.0
  9
$USERR5
 40
0.0
  9
$WORLDVIEW
 70
     1
  9
$SHADEDGE
 70
     3
  9
$SHADEDIF
 70
    70
  9
$TILEMODE
 70
     1
  9
$MAXACTVP
 70
    16
  9
$PINSBASE
 10
0.0
 20
0.0
 30
0.0
  9
$PLIMCHECK
 70
     0
  9
$PEXTMIN
 10
1.000000E+20
 20
1.000000E+20
 30
1.000000E+20
  9
$PEXTMAX
 10
-1.000000E+20
 20
-1.000000E+20
 30
-1.000000E+20
  9
$PLIMMIN
 10
0.0
 20
0.0
  9
$PLIMMAX
 10
12.0
 20
9.0
  9
$UNITMODE
 70
     0
  9
$VISRETAIN
 70
     0
  9
$PLINEGEN
 70
     1
  9
$PSLTSCALE
 70
     0
  9
$TREEDEPTH
 70
  3020
  9
$DWGCODEPAGE
  3
dos850
  0
ENDSEC
  0
SECTION
  2
TABLES
  0
TABLE
  2
VPORT
 70
     1
  0
VPORT
  2
*ACTIVE
 70
     0
 10
0.0
 20
0.0
 11
1.0
 21
1.0
 12
0.0
 22
0.0
 13
0.0
 23
0.0
 14
1.0
 24
1.0
 15
0.0
 25
0.0
 16
0.0
 26
0.0
 36
1.0
 17
0.0
 27
0.0
 37
0.0
 40
10.0
 41
0.688564
 42
50.0
 43
0.0
 44
0.0
 50
0.0
 51
0.0
 71
     0
 72
   100
 73
     1
 74
     1
 75
     0
 76
     0
 77
     0
 78
     0
  0
ENDTAB
  0
TABLE
  2
LTYPE
 70
    11
  0
LTYPE
  2
CONTINUOUS
 70
     0
  3
Solid line
 72
    65
 73
     0
 40
0.0
  0
LTYPE
  2
MCDASH01
 70
     0
  3

 72
    65
 73
     2
 40
0.083328
 49
0.041656
 49
-0.041672
  0
LTYPE
  2
MCDASH02
 70
     0
  3

 72
    65
 73
     2
 40
0.138885
 49
0.097214
 49
-0.041672
  0
LTYPE
  2
MCDASH03
 70
     0
  3

 72
    65
 73
     2
 40
0.25
 49
0.208328
 49
-0.041672
  0
LTYPE
  2
MCDASH04
 70
     0
  3

 72
    65
 73
     2
 40
0.305542
 49
0.263885
 49
-0.041656
  0
LTYPE
  2
MCDASH05
 70
     0
  3

 72
    65
 73
     2
 40
0.041656
 49
0.013885
 49
-0.027771
  0
LTYPE
  2
MCDASH06
 70
     0
  3

 72
    65
 73
     4
 40
0.208328
 49
0.125
 49
-0.041656
 49
0.013885
 49
-0.027786
  0
LTYPE
  2
MCDASH07
 70
     0
  3

 72
    65
 73
     6
 40
0.375
 49
0.125
 49
-0.041656
 49
0.125
 49
-0.041672
 49
0.013885
 49
-0.027786
  0
LTYPE
  2
MCDASH08
 70
     0
  3

 72
    65
 73
     6
 40
0.25
 49
0.125
 49
-0.041656
 49
0.013885
 49
-0.027786
 49
0.013885
 49
-0.027786
  0
LTYPE
  2
MCDASH09
 70
     0
  3

 72
    65
 73
     4
 40
1.0
 49
0.75
 49
-0.055557
 49
0.138885
 49
-0.055557
  0
LTYPE
  2
MCDASH10
 70
     0
  3

 72
    65
 73
     6
 40
1.1875
 49
0.75
 49
-0.055557
 49
0.138885
 49
-0.055557
 49
0.125
 49
-0.0625
  0
ENDTAB
  0
TABLE
  2
LAYER
 70
     2
  0
LAYER
  2
0
 70
     0
 62
     7
  6
CONTINUOUS
  0
LAYER
  2
LAYER-1
 70
    64
 62
     7
  6
CONTINUOUS
  0
ENDTAB
  0
TABLE
  2
STYLE
 70
     1
  0
STYLE
  2
STANDARD
 70
     0
 40
0.0
 41
1.0
 50
0.0
 71
     0
 42
0.0
  3
txt
  4

  0
ENDTAB
  0
TABLE
  2
VIEW
 70
     0
  0
ENDTAB
  0
TABLE
  2
UCS
 70
     0
  0
ENDTAB
  0
TABLE
  2
APPID
 70
     1
  0
APPID
  2
ACAD
 70
     0
  0
ENDTAB
  0
TABLE
  2
DIMSTYLE
 70
     1
  0
DIMSTYLE
  2
STANDARD
 70
     0
  3

  4

  5

  6

  7

 40
1.0
 41
0.18
 42
0.0625
 43
0.38
 44
0.18
 45
0.0
 46
0.0
 47
0.0
 48
0.0
140
0.18
141
0.09
142
0.0
143
25.4
144
1.0
145
0.0
146
1.0
147
0.09
 71
     0
 72
     0
 73
     1
 74
     1
 75
     0
 76
     0
 77
     0
 78
     0
170
     0
171
     2
172
     0
173
     0
174
     0
175
     0
176
     0
177
     0
178
     0
  0
ENDTAB
  0
ENDSEC
  0
SECTION
  2
BLOCKS
  0
ENDSEC
  0
SECTION
  2
ENTITIES
  0
POLYLINE
  8
LAYER-1
  6
CONTINUOUS
 62
     7
  5
2B
 66
     1
 10
0.0
 20
0.0
 30
0.0
 70
     5
 40
0.028
 41
0.028
 75
     5
  0
VERTEX
  8
LAYER-1
  6
CONTINUOUS
 62
     7
  5
2C
 10
-1.406
 20
0.0
 30
0.0
  0
VERTEX
  8
LAYER-1
  6
CONTINUOUS
 62
     7
  5
2D
 10
-1.406716
 20
0.029155
 30
0.0
  0
VERTEX
  8
LAYER-1
  6
CONTINUOUS
 62
     7
  5
2E
 10
-1.408861
 20
0.058231
 30
0.0
  0
VERTEX
  8
LAYER-1
  6
CONTINUOUS
 62
     7
  5
2F
 10
-1.412431
 20
0.087176
 30
0.0
  0
VERTEX
  8
LAYER-1
  6
CONTINUOUS
 62
     7
  5
30
 10
-1.417415
 20
0.115902
 30
0.0
  0
VERTEX
  8
LAYER-1
  6
CONTINUOUS
 62
     7
  5
31
 10
-1.423805
 20
0.144357
 30
0.0
  0
VERTEX
  8
LAYER-1
  6
CONTINUOUS
 62
     7
  5
32
 10
-1.431582
 20
0.172456
 30
0.0
  0
VERTEX
  8
LAYER-1
  6
CONTINUOUS
 62
     7
  5
33
 10
-1.44073
 20
0.200147
 30
0.0
  0
VERTEX
  8
LAYER-1
  6
CONTINUOUS
 62
     7
  5
34
 10
-1.451224
 20
0.227348
 30
0.0
  0
VERTEX
  8
LAYER-1
  6
CONTINUOUS
 62
     7
  5
35
 10
-1.463043
 20
0.254009
 30
0.0
  0
VERTEX
  8
LAYER-1
  6
CONTINUOUS
 62
     7
  5
36
 10
-1.476153
 20
0.28005
 30
0.0
  0
VERTEX
  8
LAYER-1
  6
CONTINUOUS
 62
     7
  5
37
 10
-1.49053
 20
0.305424
 30
0.0
  0
VERTEX
  8
LAYER-1
  6
CONTINUOUS
 62
     7
  5
38
 10
-1.50613
 20
0.330055
 30
0.0
  0
VERTEX
  8
LAYER-1
  6
CONTINUOUS
 62
     7
  5
39
 10
-1.522925
 20
0.353897
 30
0.0
  0
VERTEX
  8
LAYER-1
  6
CONTINUOUS
 62
     7
  5
3A
 10
-1.540865
 20
0.376879
 30
0.0
  0
VERTEX
  8
LAYER-1
  6
CONTINUOUS
 62
     7
  5
3B
 10
-1.559918
 20
0.398961
 30
0.0
  0
VERTEX
  8
LAYER-1
  6
CONTINUOUS
 62
     7
  5
3C
 10
-1.580029
 20
0.420078
 30
0.0
  0
VERTEX
  8
LAYER-1
  6
CONTINUOUS
 62
     7
  5
3D
 10
-1.601154
 20
0.440186
 30
0.0
  0
VERTEX
  8
LAYER-1
  6
CONTINUOUS
 62
     7
  5
3E
 10
-1.623233
 20
0.459227
 30
0.0
  0
VERTEX
  8
LAYER-1
  6
CONTINUOUS
 62
     7
  5
3F
 10
-1.646227
 20
0.477166
 30
0.0
  0
VERTEX
  8
LAYER-1
  6
CONTINUOUS
 62
     7
  5
40
 10
-1.670066
 20
0.493951
 30
0.0
  0
VERTEX
  8
LAYER-1
  6
CONTINUOUS
 62
     7
  5
41
 10
-1.694708
 20
0.509549
 30
0.0
  0
VERTEX
  8
LAYER-1
  6
CONTINUOUS
 62
     7
  5
42
 10
-1.720078
 20
0.523915
 30
0.0
  0
VERTEX
  8
LAYER-1
  6
CONTINUOUS
 62
     7
  5
43
 10
-1.74613
 20
0.537022
 30
0.0
  0
VERTEX
  8
LAYER-1
  6
CONTINUOUS
 62
     7
  5
44
 10
-1.772786
 20
0.548832
 30
0.0
  0
VERTEX
  8
LAYER-1
  6
CONTINUOUS
 62
     7
  5
45
 10
-1.799998
 20
0.559321
 30
0.0
  0
VERTEX
  8
LAYER-1
  6
CONTINUOUS
 62
     7
  5
46
 10
-1.827683
 20
0.56846
 30
0.0
  0
VERTEX
  8
LAYER-1
  6
CONTINUOUS
 62
     7
  5
47
 10
-1.855793
 20
0.576232
 30
0.0
  0
VERTEX
  8
LAYER-1
  6
CONTINUOUS
 62
     7
  5
48
 10
-1.884241
 20
0.582613
 30
0.0
  0
VERTEX
  8
LAYER-1
  6
CONTINUOUS
 62
     7
  5
49
 10
-1.912976
 20
0.587592
 30
0.0
  0
VERTEX
  8
LAYER-1
  6
CONTINUOUS
 62
     7
  5
4A
 10
-1.941913
 20
0.591154
 30
0.0
  0
VERTEX
  8
LAYER-1
  6
CONTINUOUS
 62
     7
  5
4B
 10
-1.970999
 20
0.593292
 30
0.0
  0
VERTEX
  8
LAYER-1
  6
CONTINUOUS
 62
     7
  5
4C
 10
-1.999855
 20
0.594
 30
0.0
  0
VERTEX
  8
LAYER-1
  6
CONTINUOUS
 62
     7
  5
4D
 10
-2.029002
 20
0.593292
 30
0.0
  0
VERTEX
  8
LAYER-1
  6
CONTINUOUS
 62
     7
  5
4E
 10
-2.058087
 20
0.591154
 30
0.0
  0
VERTEX
  8
LAYER-1
  6
CONTINUOUS
 62
     7
  5
4F
 10
-2.087024
 20
0.587592
 30
0.0
  0
VERTEX
  8
LAYER-1
  6
CONTINUOUS
 62
     7
  5
50
 10
-2.11576
 20
0.582613
 30
0.0
  0
VERTEX
  8
LAYER-1
  6
CONTINUOUS
 62
     7
  5
51
 10
-2.144208
 20
0.576232
 30
0.0
  0
VERTEX
  8
LAYER-1
  6
CONTINUOUS
 62
     7
  5
52
 10
-2.172317
 20
0.56846
 30
0.0
  0
VERTEX
  8
LAYER-1
  6
CONTINUOUS
 62
     7
  5
53
 10
-2.200002
 20
0.559321
 30
0.0
  0
VERTEX
  8
LAYER-1
  6
CONTINUOUS
 62
     7
  5
54
 10
-2.227214
 20
0.548832
 30
0.0
  0
VERTEX
  8
LAYER-1
  6
CONTINUOUS
 62
     7
  5
55
 10
-2.25387
 20
0.537022
 30
0.0
  0
VERTEX
  8
LAYER-1
  6
CONTINUOUS
 62
     7
  5
56
 10
-2.279923
 20
0.523915
 30
0.0
  0
VERTEX
  8
LAYER-1
  6
CONTINUOUS
 62
     7
  5
57
 10
-2.305292
 20
0.509549
 30
0.0
  0
VERTEX
  8
LAYER-1
  6
CONTINUOUS
 62
     7
  5
58
 10
-2.329934
 20
0.493951
 30
0.0
  0
VERTEX
  8
LAYER-1
  6
CONTINUOUS
 62
     7
  5
59
 10
-2.353774
 20
0.477166
 30
0.0
  0
VERTEX
  8
LAYER-1
  6
CONTINUOUS
 62
     7
  5
5A
 10
-2.376768
 20
0.459227
 30
0.0
  0
VERTEX
  8
LAYER-1
  6
CONTINUOUS
 62
     7
  5
5B
 10
-2.398846
 20
0.440186
 30
0.0
  0
VERTEX
  8
LAYER-1
  6
CONTINUOUS
 62
     7
  5
5C
 10
-2.419971
 20
0.420078
 30
0.0
  0
VERTEX
  8
LAYER-1
  6
CONTINUOUS
 62
     7
  5
5D
 10
-2.440082
 20
0.398961
 30
0.0
  0
VERTEX
  8
LAYER-1
  6
CONTINUOUS
 62
     7
  5
5E
 10
-2.459135
 20
0.376879
 30
0.0
  0
VERTEX
  8
LAYER-1
  6
CONTINUOUS
 62
     7
  5
5F
 10
-2.477075
 20
0.353897
 30
0.0
  0
VERTEX
  8
LAYER-1
  6
CONTINUOUS
 62
     7
  5
60
 10
-2.49387
 20
0.330055
 30
0.0
  0
VERTEX
  8
LAYER-1
  6
CONTINUOUS
 62
     7
  5
61
 10
-2.50947
 20
0.305424
 30
0.0
  0
VERTEX
  8
LAYER-1
  6
CONTINUOUS
 62
     7
  5
62
 10
-2.523847
 20
0.28005
 30
0.0
  0
VERTEX
  8
LAYER-1
  6
CONTINUOUS
 62
     7
  5
63
 10
-2.536957
 20
0.254009
 30
0.0
  0
VERTEX
  8
LAYER-1
  6
CONTINUOUS
 62
     7
  5
64
 10
-2.548776
 20
0.227348
 30
0.0
  0
VERTEX
  8
LAYER-1
  6
CONTINUOUS
 62
     7
  5
65
 10
-2.55927
 20
0.200147
 30
0.0
  0
VERTEX
  8
LAYER-1
  6
CONTINUOUS
 62
     7
  5
66
 10
-2.568418
 20
0.172456
 30
0.0
  0
VERTEX
  8
LAYER-1
  6
CONTINUOUS
 62
     7
  5
67
 10
-2.576195
 20
0.144357
 30
0.0
  0
VERTEX
  8
LAYER-1
  6
CONTINUOUS
 62
     7
  5
68
 10
-2.582585
 20
0.115902
 30
0.0
  0
VERTEX
  8
LAYER-1
  6
CONTINUOUS
 62
     7
  5
69
 10
-2.587569
 20
0.087176
 30
0.0
  0
VERTEX
  8
LAYER-1
  6
CONTINUOUS
 62
     7
  5
6A
 10
-2.591139
 20
0.058231
 30
0.0
  0
VERTEX
  8
LAYER-1
  6
CONTINUOUS
 62
     7
  5
6B
 10
-2.593284
 20
0.029155
 30
0.0
  0
VERTEX
  8
LAYER-1
  6
CONTINUOUS
 62
     7
  5
6C
 10
-2.594
 20
0.0
 30
0.0
  0
VERTEX
  8
LAYER-1
  6
CONTINUOUS
 62
     7
  5
6D
 10
-2.593284
 20
-0.029155
 30
0.0
  0
VERTEX
  8
LAYER-1
  6
CONTINUOUS
 62
     7
  5
6E
 10
-2.591139
 20
-0.058231
 30
0.0
  0
VERTEX
  8
LAYER-1
  6
CONTINUOUS
 62
     7
  5
6F
 10
-2.587569
 20
-0.087176
 30
0.0
  0
VERTEX
  8
LAYER-1
  6
CONTINUOUS
 62
     7
  5
70
 10
-2.582585
 20
-0.115902
 30
0.0
  0
VERTEX
  8
LAYER-1
  6
CONTINUOUS
 62
     7
  5
71
 10
-2.576195
 20
-0.144357
 30
0.0
  0
VERTEX
  8
LAYER-1
  6
CONTINUOUS
 62
     7
  5
72
 10
-2.568418
 20
-0.172456
 30
0.0
  0
VERTEX
  8
LAYER-1
  6
CONTINUOUS
 62
     7
  5
73
 10
-2.55927
 20
-0.200147
 30
0.0
  0
VERTEX
  8
LAYER-1
  6
CONTINUOUS
 62
     7
  5
74
 10
-2.548776
 20
-0.227348
 30
0.0
  0
VERTEX
  8
LAYER-1
  6
CONTINUOUS
 62
     7
  5
75
 10
-2.536957
 20
-0.254009
 30
0.0
  0
VERTEX
  8
LAYER-1
  6
CONTINUOUS
 62
     7
  5
76
 10
-2.523847
 20
-0.28005
 30
0.0
  0
VERTEX
  8
LAYER-1
  6
CONTINUOUS
 62
     7
  5
77
 10
-2.50947
 20
-0.305424
 30
0.0
  0
VERTEX
  8
LAYER-1
  6
CONTINUOUS
 62
     7
  5
78
 10
-2.49387
 20
-0.330055
 30
0.0
  0
VERTEX
  8
LAYER-1
  6
CONTINUOUS
 62
     7
  5
79
 10
-2.477075
 20
-0.353897
 30
0.0
  0
VERTEX
  8
LAYER-1
  6
CONTINUOUS
 62
     7
  5
7A
 10
-2.459135
 20
-0.37688
 30
0.0
  0
VERTEX
  8
LAYER-1
  6
CONTINUOUS
 62
     7
  5
7B
 10
-2.440082
 20
-0.398961
 30
0.0
  0
VERTEX
  8
LAYER-1
  6
CONTINUOUS
 62
     7
  5
7C
 10
-2.419971
 20
-0.420078
 30
0.0
  0
VERTEX
  8
LAYER-1
  6
CONTINUOUS
 62
     7
  5
7D
 10
-2.398846
 20
-0.440186
 30
0.0
  0
VERTEX
  8
LAYER-1
  6
CONTINUOUS
 62
     7
  5
7E
 10
-2.376768
 20
-0.459227
 30
0.0
  0
VERTEX
  8
LAYER-1
  6
CONTINUOUS
 62
     7
  5
7F
 10
-2.353774
 20
-0.477166
 30
0.0
  0
VERTEX
  8
LAYER-1
  6
CONTINUOUS
 62
     7
  5
80
 10
-2.329934
 20
-0.493951
 30
0.0
  0
VERTEX
  8
LAYER-1
  6
CONTINUOUS
 62
     7
  5
81
 10
-2.305292
 20
-0.509549
 30
0.0
  0
VERTEX
  8
LAYER-1
  6
CONTINUOUS
 62
     7
  5
82
 10
-2.279923
 20
-0.523915
 30
0.0
  0
VERTEX
  8
LAYER-1
  6
CONTINUOUS
 62
     7
  5
83
 10
-2.25387
 20
-0.537022
 30
0.0
  0
VERTEX
  8
LAYER-1
  6
CONTINUOUS
 62
     7
  5
84
 10
-2.227214
 20
-0.548832
 30
0.0
  0
VERTEX
  8
LAYER-1
  6
CONTINUOUS
 62
     7
  5
85
 10
-2.200002
 20
-0.559322
 30
0.0
  0
VERTEX
  8
LAYER-1
  6
CONTINUOUS
 62
     7
  5
86
 10
-2.172317
 20
-0.56846
 30
0.0
  0
VERTEX
  8
LAYER-1
  6
CONTINUOUS
 62
     7
  5
87
 10
-2.144208
 20
-0.576232
 30
0.0
  0
VERTEX
  8
LAYER-1
  6
CONTINUOUS
 62
     7
  5
88
 10
-2.11576
 20
-0.582613
 30
0.0
  0
VERTEX
  8
LAYER-1
  6
CONTINUOUS
 62
     7
  5
89
 10
-2.087024
 20
-0.587592
 30
0.0
  0
VERTEX
  8
LAYER-1
  6
CONTINUOUS
 62
     7
  5
8A
 10
-2.058087
 20
-0.591154
 30
0.0
  0
VERTEX
  8
LAYER-1
  6
CONTINUOUS
 62
     7
  5
8B
 10
-2.029002
 20
-0.593292
 30
0.0
  0
VERTEX
  8
LAYER-1
  6
CONTINUOUS
 62
     7
  5
8C
 10
-1.999855
 20
-0.594
 30
0.0
  0
VERTEX
  8
LAYER-1
  6
CONTINUOUS
 62
     7
  5
8D
 10
-1.970999
 20
-0.593292
 30
0.0
  0
VERTEX
  8
LAYER-1
  6
CONTINUOUS
 62
     7
  5
8E
 10
-1.941913
 20
-0.591154
 30
0.0
  0
VERTEX
  8
LAYER-1
  6
CONTINUOUS
 62
     7
  5
8F
 10
-1.912976
 20
-0.587592
 30
0.0
  0
VERTEX
  8
LAYER-1
  6
CONTINUOUS
 62
     7
  5
90
 10
-1.884241
 20
-0.582613
 30
0.0
  0
VERTEX
  8
LAYER-1
  6
CONTINUOUS
 62
     7
  5
91
 10
-1.855793
 20
-0.576232
 30
0.0
  0
VERTEX
  8
LAYER-1
  6
CONTINUOUS
 62
     7
  5
92
 10
-1.827683
 20
-0.56846
 30
0.0
  0
VERTEX
  8
LAYER-1
  6
CONTINUOUS
 62
     7
  5
93
 10
-1.799998
 20
-0.559322
 30
0.0
  0
VERTEX
  8
LAYER-1
  6
CONTINUOUS
 62
     7
  5
94
 10
-1.772786
 20
-0.548832
 30
0.0
  0
VERTEX
  8
LAYER-1
  6
CONTINUOUS
 62
     7
  5
95
 10
-1.74613
 20
-0.537022
 30
0.0
  0
VERTEX
  8
LAYER-1
  6
CONTINUOUS
 62
     7
  5
96
 10
-1.720078
 20
-0.523915
 30
0.0
  0
VERTEX
  8
LAYER-1
  6
CONTINUOUS
 62
     7
  5
97
 10
-1.694708
 20
-0.509549
 30
0.0
  0
VERTEX
  8
LAYER-1
  6
CONTINUOUS
 62
     7
  5
98
 10
-1.670066
 20
-0.493951
 30
0.0
  0
VERTEX
  8
LAYER-1
  6
CONTINUOUS
 62
     7
  5
99
 10
-1.646227
 20
-0.477166
 30
0.0
  0
VERTEX
  8
LAYER-1
  6
CONTINUOUS
 62
     7
  5
9A
 10
-1.623233
 20
-0.459227
 30
0.0
  0
VERTEX
  8
LAYER-1
  6
CONTINUOUS
 62
     7
  5
9B
 10
-1.601154
 20
-0.440186
 30
0.0
  0
VERTEX
  8
LAYER-1
  6
CONTINUOUS
 62
     7
  5
9C
 10
-1.580029
 20
-0.420078
 30
0.0
  0
VERTEX
  8
LAYER-1
  6
CONTINUOUS
 62
     7
  5
9D
 10
-1.559918
 20
-0.398961
 30
0.0
  0
VERTEX
  8
LAYER-1
  6
CONTINUOUS
 62
     7
  5
9E
 10
-1.540865
 20
-0.37688
 30
0.0
  0
VERTEX
  8
LAYER-1
  6
CONTINUOUS
 62
     7
  5
9F
 10
-1.522925
 20
-0.353897
 30
0.0
  0
VERTEX
  8
LAYER-1
  6
CONTINUOUS
 62
     7
  5
A0
 10
-1.50613
 20
-0.330055
 30
0.0
  0
VERTEX
  8
LAYER-1
  6
CONTINUOUS
 62
     7
  5
A1
 10
-1.49053
 20
-0.305424
 30
0.0
  0
VERTEX
  8
LAYER-1
  6
CONTINUOUS
 62
     7
  5
A2
 10
-1.476153
 20
-0.28005
 30
0.0
  0
VERTEX
  8
LAYER-1
  6
CONTINUOUS
 62
     7
  5
A3
 10
-1.463043
 20
-0.254009
 30
0.0
  0
VERTEX
  8
LAYER-1
  6
CONTINUOUS
 62
     7
  5
A4
 10
-1.451224
 20
-0.227348
 30
0.0
  0
VERTEX
  8
LAYER-1
  6
CONTINUOUS
 62
     7
  5
A5
 10
-1.44073
 20
-0.200147
 30
0.0
  0
VERTEX
  8
LAYER-1
  6
CONTINUOUS
 62
     7
  5
A6
 10
-1.431582
 20
-0.172456
 30
0.0
  0
VERTEX
  8
LAYER-1
  6
CONTINUOUS
 62
     7
  5
A7
 10
-1.423805
 20
-0.144357
 30
0.0
  0
VERTEX
  8
LAYER-1
  6
CONTINUOUS
 62
     7
  5
A8
 10
-1.417415
 20
-0.115902
 30
0.0
  0
VERTEX
  8
LAYER-1
  6
CONTINUOUS
 62
     7
  5
A9
 10
-1.412431
 20
-0.087176
 30
0.0
  0
VERTEX
  8
LAYER-1
  6
CONTINUOUS
 62
     7
  5
AA
 10
-1.408861
 20
-0.058231
 30
0.0
  0
VERTEX
  8
LAYER-1
  6
CONTINUOUS
 62
     7
  5
AB
 10
-1.406716
 20
-0.029155
 30
0.0
  0
SEQEND
  8
LAYER-1
  6
CONTINUOUS
  5
AC
  0
CIRCLE
  8
LAYER-1
  6
CONTINUOUS
 62
     7
  5
AD
 10
-2.0
 20
0.0
 30
0.0
 40
0.156
  0
CIRCLE
  8
LAYER-1
  6
CONTINUOUS
 62
     7
  5
AE
 10
-2.0
 20
0.0
 30
0.0
 40
0.2
  0
POLYLINE
  8
LAYER-1
  6
CONTINUOUS
 62
     7
  5
AF
 66
     1
 10
0.0
 20
0.0
 30
0.0
 40
0.028
 41
0.028
  0
VERTEX
  8
LAYER-1
  6
CONTINUOUS
 62
     7
  5
B0
 10
0.0
 20
0.0
 30
0.0
  0
VERTEX
  8
LAYER-1
  6
CONTINUOUS
 62
     7
  5
B1
 10
0.0
 20
0.594
 30
0.0
  0
SEQEND
  8
LAYER-1
  6
CONTINUOUS
  5
B2
  0
POLYLINE
  8
LAYER-1
  6
CONTINUOUS
 62
     7
  5
B3
 66
     1
 10
0.0
 20
0.0
 30
0.0
 40
0.028
 41
0.028
  0
VERTEX
  8
LAYER-1
  6
CONTINUOUS
 62
     7
  5
B4
 10
1.562
 20
0.375
 30
0.0
  0
VERTEX
  8
LAYER-1
  6
CONTINUOUS
 62
     7
  5
B5
 10
1.562
 20
0.0
 30
0.0
  0
SEQEND
  8
LAYER-1
  6
CONTINUOUS
  5
B6
  0
POLYLINE
  8
LAYER-1
  6
CONTINUOUS
 62
     7
  5
B7
 66
     1
 10
0.0
 20
0.0
 30
0.0
 40
0.028
 41
0.028
  0
VERTEX
  8
LAYER-1
  6
CONTINUOUS
 62
     7
  5
B8
 10
0.0
 20
0.594
 30
0.0
  0
VERTEX
  8
LAYER-1
  6
CONTINUOUS
 62
     7
  5
B9
 10
0.5
 20
0.594
 30
0.0
  0
SEQEND
  8
LAYER-1
  6
CONTINUOUS
  5
BA
  0
POLYLINE
  8
LAYER-1
  6
CONTINUOUS
 62
     7
  5
BB
 66
     1
 10
0.0
 20
0.0
 30
0.0
 40
0.028
 41
0.028
  0
VERTEX
  8
LAYER-1
  6
CONTINUOUS
 62
     7
  5
BC
 10
0.5
 20
0.375
 30
0.0
  0
VERTEX
  8
LAYER-1
  6
CONTINUOUS
 62
     7
  5
BD
 10
1.562
 20
0.375
 30
0.0
  0
SEQEND
  8
LAYER-1
  6
CONTINUOUS
  5
BE
  0
POLYLINE
  8
LAYER-1
  6
CONTINUOUS
 62
     7
  5
BF
 66
     1
 10
0.0
 20
0.0
 30
0.0
 40
0.028
 41
0.028
  0
VERTEX
  8
LAYER-1
  6
CONTINUOUS
 62
     7
  5
C0
 10
0.5
 20
0.594
 30
0.0
  0
VERTEX
  8
LAYER-1
  6
CONTINUOUS
 62
     7
  5
C1
 10
0.5
 20
0.375
 30
0.0
  0
SEQEND
  8
LAYER-1
  6
CONTINUOUS
  5
C2
  0
LINE
  8
LAYER-1
  6
MCDASH01
 62
     7
  5
C3
 10
0.0
 20
0.156
 30
0.0
 11
0.625
 21
0.156
 31
0.0
  0
LINE
  8
LAYER-1
  6
MCDASH01
 62
     7
  5
C4
 10
0.625
 20
0.156
 30
0.0
 11
0.6875
 21
0.0
 31
0.0
  0
LINE
  8
LAYER-1
  6
MCDASH01
 62
     7
  5
C5
 10
0.8245
 20
0.375
 30
0.0
 11
0.8245
 21
0.0
 31
0.0
  0
LINE
  8
LAYER-1
  6
MCDASH01
 62
     7
  5
C6
 10
1.1995
 20
0.375
 30
0.0
 11
1.1995
 21
0.0
 31
0.0
  0
POLYLINE
  8
LAYER-1
  6
CONTINUOUS
 62
     7
  5
C7
 66
     1
 10
0.0
 20
0.0
 30
0.0
 40
0.028
 41
0.028
  0
VERTEX
  8
LAYER-1
  6
CONTINUOUS
 62
     7
  5
C8
 10
0.0
 20
0.0
 30
0.0
  0
VERTEX
  8
LAYER-1
  6
CONTINUOUS
 62
     7
  5
C9
 10
0.0
 20
-0.594
 30
0.0
  0
SEQEND
  8
LAYER-1
  6
CONTINUOUS
  5
CA
  0
POLYLINE
  8
LAYER-1
  6
CONTINUOUS
 62
     7
  5
CB
 66
     1
 10
0.0
 20
0.0
 30
0.0
 40
0.028
 41
0.028
  0
VERTEX
  8
LAYER-1
  6
CONTINUOUS
 62
     7
  5
CC
 10
1.562
 20
-0.375
 30
0.0
  0
VERTEX
  8
LAYER-1
  6
CONTINUOUS
 62
     7
  5
CD
 10
1.562
 20
0.0
 30
0.0
  0
SEQEND
  8
LAYER-1
  6
CONTINUOUS
  5
CE
  0
POLYLINE
  8
LAYER-1
  6
CONTINUOUS
 62
     7
  5
CF
 66
     1
 10
0.0
 20
0.0
 30
0.0
 40
0.028
 41
0.028
  0
VERTEX
  8
LAYER-1
  6
CONTINUOUS
 62
     7
  5
D0
 10
0.0
 20
-0.594
 30
0.0
  0
VERTEX
  8
LAYER-1
  6
CONTINUOUS
 62
     7
  5
D1
 10
0.5
 20
-0.594
 30
0.0
  0
SEQEND
  8
LAYER-1
  6
CONTINUOUS
  5
D2
  0
POLYLINE
  8
LAYER-1
  6
CONTINUOUS
 62
     7
  5
D3
 66
     1
 10
0.0
 20
0.0
 30
0.0
 40
0.028
 41
0.028
  0
VERTEX
  8
LAYER-1
  6
CONTINUOUS
 62
     7
  5
D4
 10
0.5
 20
-0.375
 30
0.0
  0
VERTEX
  8
LAYER-1
  6
CONTINUOUS
 62
     7
  5
D5
 10
1.562
 20
-0.375
 30
0.0
  0
SEQEND
  8
LAYER-1
  6
CONTINUOUS
  5
D6
  0
POLYLINE
  8
LAYER-1
  6
CONTINUOUS
 62
     7
  5
D7
 66
     1
 10
0.0
 20
0.0
 30
0.0
 40
0.028
 41
0.028
  0
VERTEX
  8
LAYER-1
  6
CONTINUOUS
 62
     7
  5
D8
 10
0.5
 20
-0.594
 30
0.0
  0
VERTEX
  8
LAYER-1
  6
CONTINUOUS
 62
     7
  5
D9
 10
0.5
 20
-0.375
 30
0.0
  0
SEQEND
  8
LAYER-1
  6
CONTINUOUS
  5
DA
  0
LINE
  8
LAYER-1
  6
MCDASH01
 62
     7
  5
DB
 10
0.0
 20
-0.156
 30
0.0
 11
0.625
 21
-0.156
 31
0.0
  0
LINE
  8
LAYER-1
  6
MCDASH01
 62
     7
  5
DC
 10
0.625
 20
-0.156
 30
0.0
 11
0.6875
 21
0.0
 31
0.0
  0
LINE
  8
LAYER-1
  6
MCDASH01
 62
     7
  5
DD
 10
0.8245
 20
-0.375
 30
0.0
 11
0.8245
 21
0.0
 31
0.0
  0
LINE
  8
LAYER-1
  6
MCDASH01
 62
     7
  5
DE
 10
1.1995
 20
-0.375
 30
0.0
 11
1.1995
 21
0.0
 31
0.0
  0
LINE
  8
LAYER-1
  6
MCDASH01
 62
     7
  5
DF
 10
-1.539336
 20
0.375
 30
0.0
 11
-2.460664
 21
0.375
 31
0.0
  0
LINE
  8
LAYER-1
  6
MCDASH01
 62
     7
  5
E0
 10
-1.539336
 20
-0.375
 30
0.0
 11
-2.460664
 21
-0.375
 31
0.0
  0
LINE
  8
LAYER-1
  6
CONTINUOUS
 62
     7
  5
E1
 10
0.0
 20
-0.6565
 30
0.0
 11
0.0
 21
-1.125
 31
0.0
  0
LINE
  8
LAYER-1
  6
CONTINUOUS
 62
     7
  5
E2
 10
0.5
 20
-0.6565
 30
0.0
 11
0.5
 21
-1.125
 31
0.0
  0
SOLID
  8
LAYER-1
 62
     7
  5
E3
 10
0.0
 20
-1.0
 30
0.0
 11
-0.125
 21
-1.033494
 31
0.0
 12
-0.125
 22
-0.966506
 32
0.0
 13
-0.125
 23
-0.966506
 33
0.0
  0
LINE
  8
LAYER-1
  6
CONTINUOUS
 62
     7
  5
E4
 10
0.0
 20
-1.0
 30
0.0
 11
-0.3
 21
-1.0
 31
0.0
  0
SOLID
  8
LAYER-1
 62
     7
  5
E5
 10
0.5
 20
-1.0
 30
0.0
 11
0.625
 21
-0.966506
 31
0.0
 12
0.625
 22
-1.033494
 32
0.0
 13
0.625
 23
-1.033494
 33
0.0
  0
LINE
  8
LAYER-1
  6
CONTINUOUS
 62
     7
  5
E6
 10
0.5
 20
-1.0
 30
0.0
 11
0.8
 21
-1.0
 31
0.0
  0
TEXT
  8
LAYER-1
 62
     7
  5
E7
 10
0.097222
 20
-1.090278
 30
0.0
 40
0.1
  1
.500"
 41
0.611111
  0
LINE
  8
LAYER-1
  6
CONTINUOUS
 62
     7
  5
E8
 10
0.0
 20
-0.6565
 30
0.0
 11
0.0
 21
-1.525
 31
0.0
  0
LINE
  8
LAYER-1
  6
CONTINUOUS
 62
     7
  5
E9
 10
0.625
 20
-0.2185
 30
0.0
 11
0.625
 21
-1.525
 31
0.0
  0
SOLID
  8
LAYER-1
 62
     7
  5
EA
 10
0.0
 20
-1.4
 30
0.0
 11
-0.125
 21
-1.433494
 31
0.0
 12
-0.125
 22
-1.366506
 32
0.0
 13
-0.125
 23
-1.366506
 33
0.0
  0
LINE
  8
LAYER-1
  6
CONTINUOUS
 62
     7
  5
EB
 10
0.0
 20
-1.4
 30
0.0
 11
-0.3
 21
-1.4
 31
0.0
  0
SOLID
  8
LAYER-1
 62
     7
  5
EC
 10
0.625
 20
-1.4
 30
0.0
 11
0.75
 21
-1.366506
 31
0.0
 12
0.75
 22
-1.433494
 32
0.0
 13
0.75
 23
-1.433494
 33
0.0
  0
LINE
  8
LAYER-1
  6
CONTINUOUS
 62
     7
  5
ED
 10
0.625
 20
-1.4
 30
0.0
 11
0.925
 21
-1.4
 31
0.0
  0
TEXT
  8
LAYER-1
 62
     7
  5
EE
 10
0.159722
 20
-1.490278
 30
0.0
 40
0.1
  1
.625"
 41
0.611111
  0
LINE
  8
LAYER-1
  6
CONTINUOUS
 62
     7
  5
EF
 10
0.0
 20
-0.6565
 30
0.0
 11
0.0
 21
-2.325
 31
0.0
  0
LINE
  8
LAYER-1
  6
CONTINUOUS
 62
     7
  5
F0
 10
1.562
 20
-0.4375
 30
0.0
 11
1.562
 21
-2.325
 31
0.0
  0
SOLID
  8
LAYER-1
 62
     7
  5
F1
 10
0.0
 20
-2.2
 30
0.0
 11
0.125
 21
-2.166506
 31
0.0
 12
0.125
 22
-2.233494
 32
0.0
 13
0.125
 23
-2.233494
 33
0.0
  0
SOLID
  8
LAYER-1
 62
     7
  5
F2
 10
1.562
 20
-2.2
 30
0.0
 11
1.437
 21
-2.233494
 31
0.0
 12
1.437
 22
-2.166506
 32
0.0
 13
1.437
 23
-2.166506
 33
0.0
  0
LINE
  8
LAYER-1
  6
CONTINUOUS
 62
     7
  5
F3
 10
0.0
 20
-2.2
 30
0.0
 11
1.562
 21
-2.2
 31
0.0
  0
TEXT
  8
LAYER-1
 62
     7
  5
F4
 10
0.5935
 20
-2.290278
 30
0.0
 40
0.1
  1
1.562"
 41
0.625
  0
LINE
  8
LAYER-1
  6
CONTINUOUS
 62
     7
  5
F5
 10
1.6245
 20
0.375
 30
0.0
 11
2.336519
 21
0.375
 31
0.0
  0
LINE
  8
LAYER-1
  6
CONTINUOUS
 62
     7
  5
F6
 10
1.6245
 20
-0.375
 30
0.0
 11
2.336519
 21
-0.375
 31
0.0
  0
SOLID
  8
LAYER-1
 62
     7
  5
F7
 10
2.211519
 20
0.375
 30
0.0
 11
2.245012
 21
0.25
 31
0.0
 12
2.178025
 22
0.25
 32
0.0
 13
2.178025
 23
0.25
 33
0.0
  0
SOLID
  8
LAYER-1
 62
     7
  5
F8
 10
2.211519
 20
-0.375
 30
0.0
 11
2.178025
 21
-0.25
 31
0.0
 12
2.245012
 22
-0.25
 32
0.0
 13
2.245012
 23
-0.25
 33
0.0
  0
LINE
  8
LAYER-1
  6
CONTINUOUS
 62
     7
  5
F9
 10
2.211519
 20
0.375
 30
0.0
 11
2.211519
 21
-0.375
 31
0.0
  0
TEXT
  8
LAYER-1
 62
     7
  5
FA
 10
2.058741
 20
-0.090278
 30
0.0
 40
0.1
  1
.750"
 41
0.611111
  0
LINE
  8
LAYER-1
  6
CONTINUOUS
 62
     7
  5
FB
 10
-1.843708
 20
-0.57307
 30
0.0
 11
-1.625
 21
-1.375
 31
0.0
  0
LINE
  8
LAYER-1
  6
CONTINUOUS
 62
     7
  5
FC
 10
-1.625
 20
-1.375
 30
0.0
 11
-1.375
 21
-1.375
 31
0.0
  0
SOLID
  8
LAYER-1
 62
     7
  5
FD
 10
-2.156292
 20
0.57307
 30
0.0
 11
-2.091587
 21
0.460998
 31
0.0
 12
-2.156292
 22
0.44366
 32
0.0
 13
-2.156292
 23
0.44366
 33
0.0
  0
SOLID
  8
LAYER-1
 62
     7
  5
FE
 10
-1.843708
 20
-0.57307
 30
0.0
 11
-1.908413
 21
-0.460998
 31
0.0
 12
-1.843708
 22
-0.44366
 32
0.0
 13
-1.843708
 23
-0.44366
 33
0.0
  0
LINE
  8
LAYER-1
  6
CONTINUOUS
 62
     7
  5
FF
 10
-2.156292
 20
0.57307
 30
0.0
 11
-1.843708
 21
-0.57307
 31
0.0
  0
TEXT
  8
LAYER-1
 62
     7
  5
100
 10
-1.375
 20
-1.465278
 30
0.0
 40
0.1
  1
» 1.188"
 41
0.642361
  0
LINE
  8
LAYER-1
  6
CONTINUOUS
 62
     7
  5
101
 10
0.8245
 20
0.4375
 30
0.0
 11
0.8245
 21
1.125
 31
0.0
  0
LINE
  8
LAYER-1
  6
CONTINUOUS
 62
     7
  5
102
 10
1.1995
 20
0.4375
 30
0.0
 11
1.1995
 21
1.125
 31
0.0
  0
SOLID
  8
LAYER-1
 62
     7
  5
103
 10
0.8245
 20
1.0
 30
0.0
 11
0.6995
 21
0.966506
 31
0.0
 12
0.6995
 22
1.033494
 32
0.0
 13
0.6995
 23
1.033494
 33
0.0
  0
LINE
  8
LAYER-1
  6
CONTINUOUS
 62
     7
  5
104
 10
0.8245
 20
1.0
 30
0.0
 11
0.5245
 21
1.0
 31
0.0
  0
SOLID
  8
LAYER-1
 62
     7
  5
105
 10
1.1995
 20
1.0
 30
0.0
 11
1.3245
 21
1.033494
 31
0.0
 12
1.3245
 22
0.966506
 32
0.0
 13
1.3245
 23
0.966506
 33
0.0
  0
LINE
  8
LAYER-1
  6
CONTINUOUS
 62
     7
  5
106
 10
1.1995
 20
1.0
 30
0.0
 11
1.4995
 21
1.0
 31
0.0
  0
TEXT
  8
LAYER-1
 62
     7
  5
107
 10
0.859222
 20
0.909722
 30
0.0
 40
0.1
  1
.375"
 41
0.611111
  0
TEXT
  8
LAYER-1
 62
     7
  5
108
 10
0.875
 20
0.792476
 30
0.0
 40
0.1
  1
.376"
 41
0.592852
  0
TEXT
  8
LAYER-1
 62
     7
  5
109
 10
0.875
 20
0.626619
 30
0.0
 40
0.1
  1
Dia.
 41
0.592852
  0
LINE
  8
LAYER-1
  6
CONTINUOUS
 62
     7
  5
10A
 10
0.0
 20
-0.6565
 30
0.0
 11
0.0
 21
-1.875
 31
0.0
  0
LINE
  8
LAYER-1
  6
CONTINUOUS
 62
     7
  5
10B
 10
1.012
 20
-0.6565
 30
0.0
 11
1.012
 21
-1.875
 31
0.0
  0
SOLID
  8
LAYER-1
 62
     7
  5
10C
 10
0.0
 20
-1.75
 30
0.0
 11
0.125
 21
-1.716506
 31
0.0
 12
0.125
 22
-1.783494
 32
0.0
 13
0.125
 23
-1.783494
 33
0.0
  0
SOLID
  8
LAYER-1
 62
     7
  5
10D
 10
1.012
 20
-1.75
 30
0.0
 11
0.887
 21
-1.783494
 31
0.0
 12
0.887
 22
-1.716506
 32
0.0
 13
0.887
 23
-1.716506
 33
0.0
  0
LINE
  8
LAYER-1
  6
CONTINUOUS
 62
     7
  5
10E
 10
0.0
 20
-1.75
 30
0.0
 11
1.012
 21
-1.75
 31
0.0
  0
TEXT
  8
LAYER-1
 62
     7
  5
10F
 10
0.3185
 20
-1.840278
 30
0.0
 40
0.1
  1
1.012"
 41
0.625
  0
LINE
  8
LAYER-1
  6
CONTINUOUS
 62
     7
  5
110
 10
-1.938549
 20
0.143387
 30
0.0
 11
-1.625
 21
0.875
 31
0.0
  0
LINE
  8
LAYER-1
  6
CONTINUOUS
 62
     7
  5
111
 10
-1.625
 20
0.875
 30
0.0
 11
-1.375
 21
0.875
 31
0.0
  0
SOLID
  8
LAYER-1
 62
     7
  5
112
 10
-2.061451
 20
-0.143387
 30
0.0
 11
-2.041207
 21
-0.01557
 31
0.0
 12
-1.980011
 22
-0.042817
 32
0.0
 13
-1.980011
 23
-0.042817
 33
0.0
  0
SOLID
  8
LAYER-1
 62
     7
  5
113
 10
-1.938549
 20
0.143387
 30
0.0
 11
-1.958793
 21
0.01557
 31
0.0
 12
-2.019989
 22
0.042817
 32
0.0
 13
-2.019989
 23
0.042817
 33
0.0
  0
LINE
  8
LAYER-1
  6
CONTINUOUS
 62
     7
  5
114
 10
-2.061451
 20
-0.143387
 30
0.0
 11
-1.938549
 21
0.143387
 31
0.0
  0
TEXT
  8
LAYER-1
 62
     7
  5
115
 10
-1.375
 20
0.784722
 30
0.0
 40
0.1
  1
» .312"
 41
0.634921
  0
TEXT
  8
LAYER-1
 62
     7
  5
116
 10
-0.888889
 20
0.798333
 30
0.0
 40
0.1
  1
Minor dia.
 41
0.569444
  0
TEXT
  8
LAYER-1
 62
     7
  5
117
 10
-1.194444
 20
0.597222
 30
0.0
 40
0.1
  1
3/8-16 Thread
 41
0.641026
  0
TEXT
  8
LAYER-1
 62
     7
  5
118
 10
-1.194444
 20
0.430555
 30
0.0
 40
0.1
  1
.550 min deep
 41
0.641026
  0
TEXT
  8
LAYER-1
 62
     7
  5
119
 10
-2.611111
 20
1.708333
 30
0.0
 40
0.2
  1
Upper Spindle Mounting Block
 41
0.607639
  0
TEXT
  8
LAYER-1
 62
     7
  5
11A
 10
-2.611111
 20
1.402778
 30
0.0
 40
0.2
  1
           Mat'l: Mild steel
 41
0.607639
  0
POLYLINE
  8
LAYER-1
  6
CONTINUOUS
 62
     7
  5
11B
 66
     1
 10
0.0
 20
0.0
 30
0.0
 70
     5
 75
     5
  0
VERTEX
  8
LAYER-1
  6
CONTINUOUS
 62
     7
  5
11C
 10
-2.75
 20
0.25
 30
0.0
  0
VERTEX
  8
LAYER-1
  6
CONTINUOUS
 62
     7
  5
11D
 10
-2.625
 20
0.25
 30
0.0
  0
VERTEX
  8
LAYER-1
  6
CONTINUOUS
 62
     7
  5
11E
 10
-2.625
 20
-0.25
 30
0.0
  0
VERTEX
  8
LAYER-1
  6
CONTINUOUS
 62
     7
  5
11F
 10
-2.75
 20
-0.25
 30
0.0
  0
SEQEND
  8
LAYER-1
  6
CONTINUOUS
  5
120
  0
POLYLINE
  8
LAYER-1
  6
CONTINUOUS
 62
     7
  5
121
 66
     1
 10
0.0
 20
0.0
 30
0.0
 70
     5
 75
     5
  0
VERTEX
  8
LAYER-1
  6
CONTINUOUS
 62
     7
  5
122
 10
-2.875
 20
0.125
 30
0.0
  0
VERTEX
  8
LAYER-1
  6
CONTINUOUS
 62
     7
  5
123
 10
-2.75
 20
0.125
 30
0.0
  0
VERTEX
  8
LAYER-1
  6
CONTINUOUS
 62
     7
  5
124
 10
-2.75
 20
-0.091506
 30
0.0
  0
VERTEX
  8
LAYER-1
  6
CONTINUOUS
 62
     7
  5
125
 10
-2.875
 20
-0.091506
 30
0.0
  0
SEQEND
  8
LAYER-1
  6
CONTINUOUS
  5
126
  0
LINE
  8
LAYER-1
  6
CONTINUOUS
 62
     7
  5
127
 10
-2.925
 20
-0.175
 30
0.0
 11
-2.95
 21
-0.175
 31
0.0
  0
LINE
  8
LAYER-1
  6
CONTINUOUS
 62
     7
  5
128
 10
-2.875
 20
0.15
 30
0.0
 11
-2.875
 21
-0.125
 31
0.0
  0
LINE
  8
LAYER-1
  6
CONTINUOUS
 62
     7
  5
129
 10
-2.95
 20
0.2
 30
0.0
 11
-2.925
 21
0.2
 31
0.0
  0
ARC
  8
LAYER-1
  6
CONTINUOUS
 62
     7
  5
12A
 10
-2.925
 20
0.15
 30
0.0
 40
0.05
 50
0.0
 51
90.0
  0
ARC
  8
LAYER-1
  6
CONTINUOUS
 62
     7
  5
12B
 10
-2.925
 20
-0.125
 30
0.0
 40
0.05
 50
270.0
 51
0.0
  0
LINE
  8
LAYER-1
  6
CONTINUOUS
 62
     7
  5
12C
 10
-2.625
 20
0.2
 30
0.0
 11
-2.559317
 21
0.2
 31
0.0
  0
LINE
  8
LAYER-1
  6
CONTINUOUS
 62
     7
  5
12D
 10
-2.625
 20
-0.175
 30
0.0
 11
-2.567636
 21
-0.175
 31
0.0
  0
LINE
  8
LAYER-1
  6
CONTINUOUS
 62
     7
  5
12E
 10
-3.125
 20
0.125
 30
0.0
 11
-3.125
 21
-0.091506
 31
0.0
  0
LINE
  8
LAYER-1
  6
CONTINUOUS
 62
     7
  5
12F
 10
-3.125
 20
0.125
 30
0.0
 11
-2.95
 21
0.2
 31
0.0
  0
LINE
  8
LAYER-1
  6
CONTINUOUS
 62
     7
  5
130
 10
-3.125
 20
-0.091506
 30
0.0
 11
-2.95
 21
-0.175
 31
0.0
  0
LINE
  8
LAYER-1
  6
MCDASH01
 62
     7
  5
131
 10
-2.2
 20
0.375
 30
0.0
 11
-2.2
 21
-0.375
 31
0.0
  0
LINE
  8
LAYER-1
  6
MCDASH01
 62
     7
  5
132
 10
-1.8
 20
0.375
 30
0.0
 11
-1.8
 21
-0.375
 31
0.0
  0
LINE
  8
LAYER-1
  6
MCDASH01
 62
     7
  5
133
 10
-2.559317
 20
0.2
 30
0.0
 11
-2.375
 21
0.2
 31
0.0
  0
LINE
  8
LAYER-1
  6
MCDASH01
 62
     7
  5
134
 10
-2.375
 20
0.2
 30
0.0
 11
-2.375
 21
-0.175
 31
0.0
  0
LINE
  8
LAYER-1
  6
MCDASH01
 62
     7
  5
135
 10
-2.375
 20
0.125
 30
0.0
 11
-2.2
 21
0.125
 31
0.0
  0
LINE
  8
LAYER-1
  6
MCDASH01
 62
     7
  5
136
 10
-2.567636
 20
-0.175
 30
0.0
 11
-2.375
 21
-0.175
 31
0.0
  0
LINE
  8
LAYER-1
  6
MCDASH01
 62
     7
  5
137
 10
-2.375
 20
-0.091506
 30
0.0
 11
-2.2
 21
-0.091506
 31
0.0
  0
CIRCLE
  8
LAYER-1
  6
MCDASH01
 62
     7
  5
138
 10
1.0
 20
0.0
 30
0.0
 40
0.0625
  0
SOLID
  8
LAYER-1
 62
     7
  5
139
 10
-2.75
 20
-0.25
 30
0.0
 11
-2.798478
 21
-0.369986
 31
0.0
 12
-2.851976
 22
-0.329672
 32
0.0
 13
-2.851976
 23
-0.329672
 33
0.0
  0
LINE
  8
LAYER-1
  6
CONTINUOUS
 62
     7
  5
13A
 10
-3.5
 20
-1.25
 30
0.0
 11
-2.75
 21
-0.25
 31
0.0
  0
LINE
  8
LAYER-1
  6
CONTINUOUS
 62
     7
  5
13B
 10
-3.5
 20
-1.25
 30
0.0
 11
-3.25
 21
-1.25
 31
0.0
  0
TEXT
  8
LAYER-1
 62
     7
  5
13C
 10
-3.144802
 20
-1.334333
 30
0.0
 40
0.1
  1
Zerk Fitting
 41
0.521413
  0
ENDSEC
  0
EOF
