  0
SECTION
  2
HEADER
  9
$ACADVER
  1
AC1009
  9
$INSBASE
 10
0.0
 20
0.0
 30
0.0
  9
$EXTMIN
 10
-5.166667
 20
-4.131944
 30
0.0
  9
$EXTMAX
 10
5.166667
 20
4.131944
 30
0.0
  9
$LIMMIN
 10
0.0
 20
0.0
  9
$LIMMAX
 10
0.0
 20
0.0
  9
$ORTHOMODE
 70
     0
  9
$REGENMODE
 70
     1
  9
$FILLMODE
 70
     1
  9
$QTEXTMODE
 70
     0
  9
$MIRRTEXT
 70
     1
  9
$DRAGMODE
 70
     2
  9
$LTSCALE
 40
1.0
  9
$OSMODE
 70
     0
  9
$ATTMODE
 70
     1
  9
$TEXTSIZE
 40
0.2
  9
$TRACEWID
 40
0.05
  9
$TEXTSTYLE
  7
STANDARD
  9
$CLAYER
  8
0
  9
$CELTYPE
  6
CONTINUOUS
  9
$CECOLOR
 62
   256
  9
$DIMSCALE
 40
1.0
  9
$DIMASZ
 40
0.18
  9
$DIMEXO
 40
0.0625
  9
$DIMDLI
 40
0.38
  9
$DIMRND
 40
0.0
  9
$DIMDLE
 40
0.0
  9
$DIMEXE
 40
0.18
  9
$DIMTP
 40
0.0
  9
$DIMTM
 40
0.0
  9
$DIMTXT
 40
0.18
  9
$DIMCEN
 40
0.09
  9
$DIMTSZ
 40
0.0
  9
$DIMTOL
 70
     0
  9
$DIMLIM
 70
     0
  9
$DIMTIH
 70
     1
  9
$DIMTOH
 70
     1
  9
$DIMSE1
 70
     0
  9
$DIMSE2
 70
     0
  9
$DIMTAD
 70
     0
  9
$DIMZIN
 70
     0
  9
$DIMBLK
  1

  9
$DIMASO
 70
     1
  9
$DIMSHO
 70
     1
  9
$DIMPOST
  1

  9
$DIMAPOST
  1

  9
$DIMALT
 70
     0
  9
$DIMALTD
 70
     2
  9
$DIMALTF
 40
25.4
  9
$DIMLFAC
 40
1.0
  9
$DIMTOFL
 70
     0
  9
$DIMTVP
 40
0.0
  9
$DIMTIX
 70
     0
  9
$DIMSOXD
 70
     0
  9
$DIMSAH
 70
     0
  9
$DIMBLK1
  1

  9
$DIMBLK2
  1

  9
$DIMSTYLE
  2
STANDARD
  9
$DIMCLRD
 70
     0
  9
$DIMCLRE
 70
     0
  9
$DIMCLRT
 70
     0
  9
$DIMTFAC
 40
1.0
  9
$DIMGAP
 40
0.09
  9
$LUNITS
 70
     2
  9
$LUPREC
 70
     4
  9
$AXISMODE
 70
     0
  9
$AXISUNIT
 10
0.0
 20
0.0
  9
$SKETCHINC
 40
0.1
  9
$FILLETRAD
 40
0.0
  9
$AUNITS
 70
     0
  9
$AUPREC
 70
     0
  9
$MENU
  1
acad
  9
$ELEVATION
 40
0.0
  9
$PELEVATION
 40
0.0
  9
$THICKNESS
 40
0.0
  9
$LIMCHECK
 70
     0
  9
$BLIPMODE
 70
     1
  9
$CHAMFERA
 40
0.0
  9
$CHAMFERB
 40
0.0
  9
$SKPOLY
 70
     0
  9
$TDCREATE
 40
2451806.706145833
  9
$TDUPDATE
 40
2451806.706145833
  9
$TDINDWG
 40
0.0000000000
  9
$TDUSRTIMER
 40
0.0000000000
  9
$USRTIMER
 70
     1
  9
$ANGBASE
 50
0.0
  9
$ANGDIR
 70
     0
  9
$PDMODE
 70
     0
  9
$PDSIZE
 40
0.0
  9
$PLINEWID
 40
0.0
  9
$COORDS
 70
     0
  9
$SPLFRAME
 70
     0
  9
$SPLINETYPE
 70
     6
  9
$SPLINESEGS
 70
     8
  9
$ATTDIA
 70
     0
  9
$ATTREQ
 70
     1
  9
$HANDLING
 70
     1
  9
$HANDSEED
  5
189
  9
$SURFTAB1
 70
     6
  9
$SURFTAB2
 70
     6
  9
$SURFTYPE
 70
     6
  9
$SURFU
 70
     6
  9
$SURFV
 70
     6
  9
$UCSNAME
  2

  9
$UCSORG
 10
0.0
 20
0.0
 30
0.0
  9
$UCSXDIR
 10
1.0
 20
0.0
 30
0.0
  9
$UCSYDIR
 10
0.0
 20
1.0
 30
0.0
  9
$PUCSNAME
  2

  9
$PUCSORG
 10
0.0
 20
0.0
 30
0.0
  9
$PUCSXDIR
 10
1.0
 20
0.0
 30
0.0
  9
$PUCSYDIR
 10
0.0
 20
1.0
 30
0.0
  9
$USERI1
 70
     0
  9
$USERI2
 70
     0
  9
$USERI3
 70
     0
  9
$USERI4
 70
     0
  9
$USERI5
 70
     0
  9
$USERR1
 40
0.0
  9
$USERR2
 40
0.0
  9
$USERR3
 40
0.0
  9
$USERR4
 40
0.0
  9
$USERR5
 40
0.0
  9
$WORLDVIEW
 70
     1
  9
$SHADEDGE
 70
     3
  9
$SHADEDIF
 70
    70
  9
$TILEMODE
 70
     1
  9
$MAXACTVP
 70
    16
  9
$PINSBASE
 10
0.0
 20
0.0
 30
0.0
  9
$PLIMCHECK
 70
     0
  9
$PEXTMIN
 10
1.000000E+20
 20
1.000000E+20
 30
1.000000E+20
  9
$PEXTMAX
 10
-1.000000E+20
 20
-1.000000E+20
 30
-1.000000E+20
  9
$PLIMMIN
 10
0.0
 20
0.0
  9
$PLIMMAX
 10
12.0
 20
9.0
  9
$UNITMODE
 70
     0
  9
$VISRETAIN
 70
     0
  9
$PLINEGEN
 70
     1
  9
$PSLTSCALE
 70
     0
  9
$TREEDEPTH
 70
  3020
  9
$DWGCODEPAGE
  3
dos850
  0
ENDSEC
  0
SECTION
  2
TABLES
  0
TABLE
  2
VPORT
 70
     1
  0
VPORT
  2
*ACTIVE
 70
     0
 10
0.0
 20
0.0
 11
1.0
 21
1.0
 12
0.0
 22
0.0
 13
0.0
 23
0.0
 14
1.0
 24
1.0
 15
0.0
 25
0.0
 16
0.0
 26
0.0
 36
1.0
 17
0.0
 27
0.0
 37
0.0
 40
8.0
 41
0.688564
 42
50.0
 43
0.0
 44
0.0
 50
0.0
 51
0.0
 71
     0
 72
   100
 73
     1
 74
     1
 75
     0
 76
     0
 77
     0
 78
     0
  0
ENDTAB
  0
TABLE
  2
LTYPE
 70
    11
  0
LTYPE
  2
CONTINUOUS
 70
     0
  3
Solid line
 72
    65
 73
     0
 40
0.0
  0
LTYPE
  2
MCDASH01
 70
     0
  3

 72
    65
 73
     2
 40
0.083328
 49
0.041656
 49
-0.041672
  0
LTYPE
  2
MCDASH02
 70
     0
  3

 72
    65
 73
     2
 40
0.138885
 49
0.097214
 49
-0.041672
  0
LTYPE
  2
MCDASH03
 70
     0
  3

 72
    65
 73
     2
 40
0.25
 49
0.208328
 49
-0.041672
  0
LTYPE
  2
MCDASH04
 70
     0
  3

 72
    65
 73
     2
 40
0.305542
 49
0.263885
 49
-0.041656
  0
LTYPE
  2
MCDASH05
 70
     0
  3

 72
    65
 73
     2
 40
0.041656
 49
0.013885
 49
-0.027771
  0
LTYPE
  2
MCDASH06
 70
     0
  3

 72
    65
 73
     4
 40
0.208328
 49
0.125
 49
-0.041656
 49
0.013885
 49
-0.027786
  0
LTYPE
  2
MCDASH07
 70
     0
  3

 72
    65
 73
     6
 40
0.375
 49
0.125
 49
-0.041656
 49
0.125
 49
-0.041672
 49
0.013885
 49
-0.027786
  0
LTYPE
  2
MCDASH08
 70
     0
  3

 72
    65
 73
     6
 40
0.25
 49
0.125
 49
-0.041656
 49
0.013885
 49
-0.027786
 49
0.013885
 49
-0.027786
  0
LTYPE
  2
MCDASH09
 70
     0
  3

 72
    65
 73
     4
 40
1.0
 49
0.75
 49
-0.055557
 49
0.138885
 49
-0.055557
  0
LTYPE
  2
MCDASH10
 70
     0
  3

 72
    65
 73
     6
 40
1.1875
 49
0.75
 49
-0.055557
 49
0.138885
 49
-0.055557
 49
0.125
 49
-0.0625
  0
ENDTAB
  0
TABLE
  2
LAYER
 70
     2
  0
LAYER
  2
0
 70
     0
 62
     7
  6
CONTINUOUS
  0
LAYER
  2
LAYER-1
 70
    64
 62
     7
  6
CONTINUOUS
  0
ENDTAB
  0
TABLE
  2
STYLE
 70
     1
  0
STYLE
  2
STANDARD
 70
     0
 40
0.0
 41
1.0
 50
0.0
 71
     0
 42
0.0
  3
txt
  4

  0
ENDTAB
  0
TABLE
  2
VIEW
 70
     0
  0
ENDTAB
  0
TABLE
  2
UCS
 70
     0
  0
ENDTAB
  0
TABLE
  2
APPID
 70
     1
  0
APPID
  2
ACAD
 70
     0
  0
ENDTAB
  0
TABLE
  2
DIMSTYLE
 70
     1
  0
DIMSTYLE
  2
STANDARD
 70
     0
  3

  4

  5

  6

  7

 40
1.0
 41
0.18
 42
0.0625
 43
0.38
 44
0.18
 45
0.0
 46
0.0
 47
0.0
 48
0.0
140
0.18
141
0.09
142
0.0
143
25.4
144
1.0
145
0.0
146
1.0
147
0.09
 71
     0
 72
     0
 73
     1
 74
     1
 75
     0
 76
     0
 77
     0
 78
     0
170
     0
171
     2
172
     0
173
     0
174
     0
175
     0
176
     0
177
     0
178
     0
  0
ENDTAB
  0
ENDSEC
  0
SECTION
  2
BLOCKS
  0
ENDSEC
  0
SECTION
  2
ENTITIES
  0
POLYLINE
  8
LAYER-1
  6
CONTINUOUS
 62
     7
  5
2B
 66
     1
 10
0.0
 20
0.0
 30
0.0
 70
     5
 40
0.028
 41
0.028
 75
     5
  0
VERTEX
  8
LAYER-1
  6
CONTINUOUS
 62
     7
  5
2C
 10
0.125
 20
0.0
 30
0.0
  0
VERTEX
  8
LAYER-1
  6
CONTINUOUS
 62
     7
  5
2D
 10
0.124849
 20
0.006135
 30
0.0
  0
VERTEX
  8
LAYER-1
  6
CONTINUOUS
 62
     7
  5
2E
 10
0.124398
 20
0.012254
 30
0.0
  0
VERTEX
  8
LAYER-1
  6
CONTINUOUS
 62
     7
  5
2F
 10
0.123647
 20
0.018345
 30
0.0
  0
VERTEX
  8
LAYER-1
  6
CONTINUOUS
 62
     7
  5
30
 10
0.122598
 20
0.02439
 30
0.0
  0
VERTEX
  8
LAYER-1
  6
CONTINUOUS
 62
     7
  5
31
 10
0.121253
 20
0.030378
 30
0.0
  0
VERTEX
  8
LAYER-1
  6
CONTINUOUS
 62
     7
  5
32
 10
0.119617
 20
0.036291
 30
0.0
  0
VERTEX
  8
LAYER-1
  6
CONTINUOUS
 62
     7
  5
33
 10
0.117691
 20
0.042118
 30
0.0
  0
VERTEX
  8
LAYER-1
  6
CONTINUOUS
 62
     7
  5
34
 10
0.115483
 20
0.047843
 30
0.0
  0
VERTEX
  8
LAYER-1
  6
CONTINUOUS
 62
     7
  5
35
 10
0.112996
 20
0.053453
 30
0.0
  0
VERTEX
  8
LAYER-1
  6
CONTINUOUS
 62
     7
  5
36
 10
0.110237
 20
0.058933
 30
0.0
  0
VERTEX
  8
LAYER-1
  6
CONTINUOUS
 62
     7
  5
37
 10
0.107212
 20
0.064273
 30
0.0
  0
VERTEX
  8
LAYER-1
  6
CONTINUOUS
 62
     7
  5
38
 10
0.103929
 20
0.069456
 30
0.0
  0
VERTEX
  8
LAYER-1
  6
CONTINUOUS
 62
     7
  5
39
 10
0.100394
 20
0.074473
 30
0.0
  0
VERTEX
  8
LAYER-1
  6
CONTINUOUS
 62
     7
  5
3A
 10
0.096619
 20
0.07931
 30
0.0
  0
VERTEX
  8
LAYER-1
  6
CONTINUOUS
 62
     7
  5
3B
 10
0.09261
 20
0.083956
 30
0.0
  0
VERTEX
  8
LAYER-1
  6
CONTINUOUS
 62
     7
  5
3C
 10
0.088378
 20
0.0884
 30
0.0
  0
VERTEX
  8
LAYER-1
  6
CONTINUOUS
 62
     7
  5
3D
 10
0.083932
 20
0.092632
 30
0.0
  0
VERTEX
  8
LAYER-1
  6
CONTINUOUS
 62
     7
  5
3E
 10
0.079286
 20
0.096639
 30
0.0
  0
VERTEX
  8
LAYER-1
  6
CONTINUOUS
 62
     7
  5
3F
 10
0.074447
 20
0.100414
 30
0.0
  0
VERTEX
  8
LAYER-1
  6
CONTINUOUS
 62
     7
  5
40
 10
0.069431
 20
0.103946
 30
0.0
  0
VERTEX
  8
LAYER-1
  6
CONTINUOUS
 62
     7
  5
41
 10
0.064245
 20
0.107228
 30
0.0
  0
VERTEX
  8
LAYER-1
  6
CONTINUOUS
 62
     7
  5
42
 10
0.058906
 20
0.110251
 30
0.0
  0
VERTEX
  8
LAYER-1
  6
CONTINUOUS
 62
     7
  5
43
 10
0.053424
 20
0.11301
 30
0.0
  0
VERTEX
  8
LAYER-1
  6
CONTINUOUS
 62
     7
  5
44
 10
0.047814
 20
0.115495
 30
0.0
  0
VERTEX
  8
LAYER-1
  6
CONTINUOUS
 62
     7
  5
45
 10
0.042088
 20
0.117702
 30
0.0
  0
VERTEX
  8
LAYER-1
  6
CONTINUOUS
 62
     7
  5
46
 10
0.036262
 20
0.119625
 30
0.0
  0
VERTEX
  8
LAYER-1
  6
CONTINUOUS
 62
     7
  5
47
 10
0.030347
 20
0.121261
 30
0.0
  0
VERTEX
  8
LAYER-1
  6
CONTINUOUS
 62
     7
  5
48
 10
0.02436
 20
0.122604
 30
0.0
  0
VERTEX
  8
LAYER-1
  6
CONTINUOUS
 62
     7
  5
49
 10
0.018313
 20
0.123651
 30
0.0
  0
VERTEX
  8
LAYER-1
  6
CONTINUOUS
 62
     7
  5
4A
 10
0.012224
 20
0.124401
 30
0.0
  0
VERTEX
  8
LAYER-1
  6
CONTINUOUS
 62
     7
  5
4B
 10
0.006103
 20
0.124851
 30
0.0
  0
VERTEX
  8
LAYER-1
  6
CONTINUOUS
 62
     7
  5
4C
 10
0.00003
 20
0.125
 30
0.0
  0
VERTEX
  8
LAYER-1
  6
CONTINUOUS
 62
     7
  5
4D
 10
-0.006103
 20
0.124851
 30
0.0
  0
VERTEX
  8
LAYER-1
  6
CONTINUOUS
 62
     7
  5
4E
 10
-0.012224
 20
0.124401
 30
0.0
  0
VERTEX
  8
LAYER-1
  6
CONTINUOUS
 62
     7
  5
4F
 10
-0.018313
 20
0.123651
 30
0.0
  0
VERTEX
  8
LAYER-1
  6
CONTINUOUS
 62
     7
  5
50
 10
-0.02436
 20
0.122604
 30
0.0
  0
VERTEX
  8
LAYER-1
  6
CONTINUOUS
 62
     7
  5
51
 10
-0.030347
 20
0.121261
 30
0.0
  0
VERTEX
  8
LAYER-1
  6
CONTINUOUS
 62
     7
  5
52
 10
-0.036262
 20
0.119625
 30
0.0
  0
VERTEX
  8
LAYER-1
  6
CONTINUOUS
 62
     7
  5
53
 10
-0.042088
 20
0.117702
 30
0.0
  0
VERTEX
  8
LAYER-1
  6
CONTINUOUS
 62
     7
  5
54
 10
-0.047814
 20
0.115495
 30
0.0
  0
VERTEX
  8
LAYER-1
  6
CONTINUOUS
 62
     7
  5
55
 10
-0.053424
 20
0.11301
 30
0.0
  0
VERTEX
  8
LAYER-1
  6
CONTINUOUS
 62
     7
  5
56
 10
-0.058906
 20
0.110251
 30
0.0
  0
VERTEX
  8
LAYER-1
  6
CONTINUOUS
 62
     7
  5
57
 10
-0.064245
 20
0.107228
 30
0.0
  0
VERTEX
  8
LAYER-1
  6
CONTINUOUS
 62
     7
  5
58
 10
-0.069431
 20
0.103946
 30
0.0
  0
VERTEX
  8
LAYER-1
  6
CONTINUOUS
 62
     7
  5
59
 10
-0.074447
 20
0.100414
 30
0.0
  0
VERTEX
  8
LAYER-1
  6
CONTINUOUS
 62
     7
  5
5A
 10
-0.079286
 20
0.096639
 30
0.0
  0
VERTEX
  8
LAYER-1
  6
CONTINUOUS
 62
     7
  5
5B
 10
-0.083932
 20
0.092632
 30
0.0
  0
VERTEX
  8
LAYER-1
  6
CONTINUOUS
 62
     7
  5
5C
 10
-0.088378
 20
0.0884
 30
0.0
  0
VERTEX
  8
LAYER-1
  6
CONTINUOUS
 62
     7
  5
5D
 10
-0.09261
 20
0.083956
 30
0.0
  0
VERTEX
  8
LAYER-1
  6
CONTINUOUS
 62
     7
  5
5E
 10
-0.096619
 20
0.07931
 30
0.0
  0
VERTEX
  8
LAYER-1
  6
CONTINUOUS
 62
     7
  5
5F
 10
-0.100395
 20
0.074473
 30
0.0
  0
VERTEX
  8
LAYER-1
  6
CONTINUOUS
 62
     7
  5
60
 10
-0.103929
 20
0.069456
 30
0.0
  0
VERTEX
  8
LAYER-1
  6
CONTINUOUS
 62
     7
  5
61
 10
-0.107212
 20
0.064273
 30
0.0
  0
VERTEX
  8
LAYER-1
  6
CONTINUOUS
 62
     7
  5
62
 10
-0.110237
 20
0.058933
 30
0.0
  0
VERTEX
  8
LAYER-1
  6
CONTINUOUS
 62
     7
  5
63
 10
-0.112996
 20
0.053453
 30
0.0
  0
VERTEX
  8
LAYER-1
  6
CONTINUOUS
 62
     7
  5
64
 10
-0.115483
 20
0.047843
 30
0.0
  0
VERTEX
  8
LAYER-1
  6
CONTINUOUS
 62
     7
  5
65
 10
-0.117691
 20
0.042118
 30
0.0
  0
VERTEX
  8
LAYER-1
  6
CONTINUOUS
 62
     7
  5
66
 10
-0.119617
 20
0.036291
 30
0.0
  0
VERTEX
  8
LAYER-1
  6
CONTINUOUS
 62
     7
  5
67
 10
-0.121253
 20
0.030378
 30
0.0
  0
VERTEX
  8
LAYER-1
  6
CONTINUOUS
 62
     7
  5
68
 10
-0.122598
 20
0.02439
 30
0.0
  0
VERTEX
  8
LAYER-1
  6
CONTINUOUS
 62
     7
  5
69
 10
-0.123647
 20
0.018345
 30
0.0
  0
VERTEX
  8
LAYER-1
  6
CONTINUOUS
 62
     7
  5
6A
 10
-0.124398
 20
0.012254
 30
0.0
  0
VERTEX
  8
LAYER-1
  6
CONTINUOUS
 62
     7
  5
6B
 10
-0.124849
 20
0.006135
 30
0.0
  0
VERTEX
  8
LAYER-1
  6
CONTINUOUS
 62
     7
  5
6C
 10
-0.125
 20
0.0
 30
0.0
  0
VERTEX
  8
LAYER-1
  6
CONTINUOUS
 62
     7
  5
6D
 10
-0.124849
 20
-0.006135
 30
0.0
  0
VERTEX
  8
LAYER-1
  6
CONTINUOUS
 62
     7
  5
6E
 10
-0.124398
 20
-0.012254
 30
0.0
  0
VERTEX
  8
LAYER-1
  6
CONTINUOUS
 62
     7
  5
6F
 10
-0.123647
 20
-0.018345
 30
0.0
  0
VERTEX
  8
LAYER-1
  6
CONTINUOUS
 62
     7
  5
70
 10
-0.122598
 20
-0.02439
 30
0.0
  0
VERTEX
  8
LAYER-1
  6
CONTINUOUS
 62
     7
  5
71
 10
-0.121253
 20
-0.030378
 30
0.0
  0
VERTEX
  8
LAYER-1
  6
CONTINUOUS
 62
     7
  5
72
 10
-0.119617
 20
-0.036291
 30
0.0
  0
VERTEX
  8
LAYER-1
  6
CONTINUOUS
 62
     7
  5
73
 10
-0.117691
 20
-0.042119
 30
0.0
  0
VERTEX
  8
LAYER-1
  6
CONTINUOUS
 62
     7
  5
74
 10
-0.115483
 20
-0.047843
 30
0.0
  0
VERTEX
  8
LAYER-1
  6
CONTINUOUS
 62
     7
  5
75
 10
-0.112996
 20
-0.053453
 30
0.0
  0
VERTEX
  8
LAYER-1
  6
CONTINUOUS
 62
     7
  5
76
 10
-0.110237
 20
-0.058933
 30
0.0
  0
VERTEX
  8
LAYER-1
  6
CONTINUOUS
 62
     7
  5
77
 10
-0.107212
 20
-0.064273
 30
0.0
  0
VERTEX
  8
LAYER-1
  6
CONTINUOUS
 62
     7
  5
78
 10
-0.103929
 20
-0.069456
 30
0.0
  0
VERTEX
  8
LAYER-1
  6
CONTINUOUS
 62
     7
  5
79
 10
-0.100395
 20
-0.074473
 30
0.0
  0
VERTEX
  8
LAYER-1
  6
CONTINUOUS
 62
     7
  5
7A
 10
-0.096619
 20
-0.07931
 30
0.0
  0
VERTEX
  8
LAYER-1
  6
CONTINUOUS
 62
     7
  5
7B
 10
-0.09261
 20
-0.083956
 30
0.0
  0
VERTEX
  8
LAYER-1
  6
CONTINUOUS
 62
     7
  5
7C
 10
-0.088378
 20
-0.0884
 30
0.0
  0
VERTEX
  8
LAYER-1
  6
CONTINUOUS
 62
     7
  5
7D
 10
-0.083932
 20
-0.092632
 30
0.0
  0
VERTEX
  8
LAYER-1
  6
CONTINUOUS
 62
     7
  5
7E
 10
-0.079286
 20
-0.096639
 30
0.0
  0
VERTEX
  8
LAYER-1
  6
CONTINUOUS
 62
     7
  5
7F
 10
-0.074447
 20
-0.100414
 30
0.0
  0
VERTEX
  8
LAYER-1
  6
CONTINUOUS
 62
     7
  5
80
 10
-0.069431
 20
-0.103946
 30
0.0
  0
VERTEX
  8
LAYER-1
  6
CONTINUOUS
 62
     7
  5
81
 10
-0.064245
 20
-0.107228
 30
0.0
  0
VERTEX
  8
LAYER-1
  6
CONTINUOUS
 62
     7
  5
82
 10
-0.058906
 20
-0.110252
 30
0.0
  0
VERTEX
  8
LAYER-1
  6
CONTINUOUS
 62
     7
  5
83
 10
-0.053424
 20
-0.11301
 30
0.0
  0
VERTEX
  8
LAYER-1
  6
CONTINUOUS
 62
     7
  5
84
 10
-0.047814
 20
-0.115495
 30
0.0
  0
VERTEX
  8
LAYER-1
  6
CONTINUOUS
 62
     7
  5
85
 10
-0.042088
 20
-0.117702
 30
0.0
  0
VERTEX
  8
LAYER-1
  6
CONTINUOUS
 62
     7
  5
86
 10
-0.036262
 20
-0.119626
 30
0.0
  0
VERTEX
  8
LAYER-1
  6
CONTINUOUS
 62
     7
  5
87
 10
-0.030347
 20
-0.121261
 30
0.0
  0
VERTEX
  8
LAYER-1
  6
CONTINUOUS
 62
     7
  5
88
 10
-0.02436
 20
-0.122604
 30
0.0
  0
VERTEX
  8
LAYER-1
  6
CONTINUOUS
 62
     7
  5
89
 10
-0.018313
 20
-0.123651
 30
0.0
  0
VERTEX
  8
LAYER-1
  6
CONTINUOUS
 62
     7
  5
8A
 10
-0.012224
 20
-0.124401
 30
0.0
  0
VERTEX
  8
LAYER-1
  6
CONTINUOUS
 62
     7
  5
8B
 10
-0.006103
 20
-0.124851
 30
0.0
  0
VERTEX
  8
LAYER-1
  6
CONTINUOUS
 62
     7
  5
8C
 10
0.00003
 20
-0.125
 30
0.0
  0
VERTEX
  8
LAYER-1
  6
CONTINUOUS
 62
     7
  5
8D
 10
0.006103
 20
-0.124851
 30
0.0
  0
VERTEX
  8
LAYER-1
  6
CONTINUOUS
 62
     7
  5
8E
 10
0.012224
 20
-0.124401
 30
0.0
  0
VERTEX
  8
LAYER-1
  6
CONTINUOUS
 62
     7
  5
8F
 10
0.018313
 20
-0.123651
 30
0.0
  0
VERTEX
  8
LAYER-1
  6
CONTINUOUS
 62
     7
  5
90
 10
0.02436
 20
-0.122604
 30
0.0
  0
VERTEX
  8
LAYER-1
  6
CONTINUOUS
 62
     7
  5
91
 10
0.030347
 20
-0.121261
 30
0.0
  0
VERTEX
  8
LAYER-1
  6
CONTINUOUS
 62
     7
  5
92
 10
0.036262
 20
-0.119626
 30
0.0
  0
VERTEX
  8
LAYER-1
  6
CONTINUOUS
 62
     7
  5
93
 10
0.042088
 20
-0.117702
 30
0.0
  0
VERTEX
  8
LAYER-1
  6
CONTINUOUS
 62
     7
  5
94
 10
0.047814
 20
-0.115495
 30
0.0
  0
VERTEX
  8
LAYER-1
  6
CONTINUOUS
 62
     7
  5
95
 10
0.053424
 20
-0.11301
 30
0.0
  0
VERTEX
  8
LAYER-1
  6
CONTINUOUS
 62
     7
  5
96
 10
0.058906
 20
-0.110252
 30
0.0
  0
VERTEX
  8
LAYER-1
  6
CONTINUOUS
 62
     7
  5
97
 10
0.064245
 20
-0.107228
 30
0.0
  0
VERTEX
  8
LAYER-1
  6
CONTINUOUS
 62
     7
  5
98
 10
0.069431
 20
-0.103946
 30
0.0
  0
VERTEX
  8
LAYER-1
  6
CONTINUOUS
 62
     7
  5
99
 10
0.074447
 20
-0.100414
 30
0.0
  0
VERTEX
  8
LAYER-1
  6
CONTINUOUS
 62
     7
  5
9A
 10
0.079286
 20
-0.096639
 30
0.0
  0
VERTEX
  8
LAYER-1
  6
CONTINUOUS
 62
     7
  5
9B
 10
0.083932
 20
-0.092632
 30
0.0
  0
VERTEX
  8
LAYER-1
  6
CONTINUOUS
 62
     7
  5
9C
 10
0.088378
 20
-0.0884
 30
0.0
  0
VERTEX
  8
LAYER-1
  6
CONTINUOUS
 62
     7
  5
9D
 10
0.09261
 20
-0.083956
 30
0.0
  0
VERTEX
  8
LAYER-1
  6
CONTINUOUS
 62
     7
  5
9E
 10
0.096619
 20
-0.07931
 30
0.0
  0
VERTEX
  8
LAYER-1
  6
CONTINUOUS
 62
     7
  5
9F
 10
0.100394
 20
-0.074473
 30
0.0
  0
VERTEX
  8
LAYER-1
  6
CONTINUOUS
 62
     7
  5
A0
 10
0.103929
 20
-0.069456
 30
0.0
  0
VERTEX
  8
LAYER-1
  6
CONTINUOUS
 62
     7
  5
A1
 10
0.107212
 20
-0.064273
 30
0.0
  0
VERTEX
  8
LAYER-1
  6
CONTINUOUS
 62
     7
  5
A2
 10
0.110237
 20
-0.058933
 30
0.0
  0
VERTEX
  8
LAYER-1
  6
CONTINUOUS
 62
     7
  5
A3
 10
0.112996
 20
-0.053453
 30
0.0
  0
VERTEX
  8
LAYER-1
  6
CONTINUOUS
 62
     7
  5
A4
 10
0.115483
 20
-0.047843
 30
0.0
  0
VERTEX
  8
LAYER-1
  6
CONTINUOUS
 62
     7
  5
A5
 10
0.117691
 20
-0.042119
 30
0.0
  0
VERTEX
  8
LAYER-1
  6
CONTINUOUS
 62
     7
  5
A6
 10
0.119617
 20
-0.036291
 30
0.0
  0
VERTEX
  8
LAYER-1
  6
CONTINUOUS
 62
     7
  5
A7
 10
0.121253
 20
-0.030378
 30
0.0
  0
VERTEX
  8
LAYER-1
  6
CONTINUOUS
 62
     7
  5
A8
 10
0.122598
 20
-0.02439
 30
0.0
  0
VERTEX
  8
LAYER-1
  6
CONTINUOUS
 62
     7
  5
A9
 10
0.123647
 20
-0.018345
 30
0.0
  0
VERTEX
  8
LAYER-1
  6
CONTINUOUS
 62
     7
  5
AA
 10
0.124398
 20
-0.012254
 30
0.0
  0
VERTEX
  8
LAYER-1
  6
CONTINUOUS
 62
     7
  5
AB
 10
0.124849
 20
-0.006135
 30
0.0
  0
SEQEND
  8
LAYER-1
  6
CONTINUOUS
  5
AC
  0
POLYLINE
  8
LAYER-1
  6
CONTINUOUS
 62
     7
  5
AD
 66
     1
 10
0.0
 20
0.0
 30
0.0
 70
     5
 40
0.028
 41
0.028
 75
     5
  0
VERTEX
  8
LAYER-1
  6
CONTINUOUS
 62
     7
  5
AE
 10
0.575
 20
-2.305
 30
0.0
  0
VERTEX
  8
LAYER-1
  6
CONTINUOUS
 62
     7
  5
AF
 10
0.574849
 20
-2.298865
 30
0.0
  0
VERTEX
  8
LAYER-1
  6
CONTINUOUS
 62
     7
  5
B0
 10
0.574398
 20
-2.292746
 30
0.0
  0
VERTEX
  8
LAYER-1
  6
CONTINUOUS
 62
     7
  5
B1
 10
0.573647
 20
-2.286655
 30
0.0
  0
VERTEX
  8
LAYER-1
  6
CONTINUOUS
 62
     7
  5
B2
 10
0.572598
 20
-2.28061
 30
0.0
  0
VERTEX
  8
LAYER-1
  6
CONTINUOUS
 62
     7
  5
B3
 10
0.571253
 20
-2.274622
 30
0.0
  0
VERTEX
  8
LAYER-1
  6
CONTINUOUS
 62
     7
  5
B4
 10
0.569617
 20
-2.268709
 30
0.0
  0
VERTEX
  8
LAYER-1
  6
CONTINUOUS
 62
     7
  5
B5
 10
0.567691
 20
-2.262882
 30
0.0
  0
VERTEX
  8
LAYER-1
  6
CONTINUOUS
 62
     7
  5
B6
 10
0.565483
 20
-2.257157
 30
0.0
  0
VERTEX
  8
LAYER-1
  6
CONTINUOUS
 62
     7
  5
B7
 10
0.562996
 20
-2.251547
 30
0.0
  0
VERTEX
  8
LAYER-1
  6
CONTINUOUS
 62
     7
  5
B8
 10
0.560237
 20
-2.246067
 30
0.0
  0
VERTEX
  8
LAYER-1
  6
CONTINUOUS
 62
     7
  5
B9
 10
0.557212
 20
-2.240727
 30
0.0
  0
VERTEX
  8
LAYER-1
  6
CONTINUOUS
 62
     7
  5
BA
 10
0.553929
 20
-2.235544
 30
0.0
  0
VERTEX
  8
LAYER-1
  6
CONTINUOUS
 62
     7
  5
BB
 10
0.550395
 20
-2.230527
 30
0.0
  0
VERTEX
  8
LAYER-1
  6
CONTINUOUS
 62
     7
  5
BC
 10
0.546619
 20
-2.22569
 30
0.0
  0
VERTEX
  8
LAYER-1
  6
CONTINUOUS
 62
     7
  5
BD
 10
0.54261
 20
-2.221044
 30
0.0
  0
VERTEX
  8
LAYER-1
  6
CONTINUOUS
 62
     7
  5
BE
 10
0.538378
 20
-2.2166
 30
0.0
  0
VERTEX
  8
LAYER-1
  6
CONTINUOUS
 62
     7
  5
BF
 10
0.533932
 20
-2.212368
 30
0.0
  0
VERTEX
  8
LAYER-1
  6
CONTINUOUS
 62
     7
  5
C0
 10
0.529286
 20
-2.208361
 30
0.0
  0
VERTEX
  8
LAYER-1
  6
CONTINUOUS
 62
     7
  5
C1
 10
0.524447
 20
-2.204586
 30
0.0
  0
VERTEX
  8
LAYER-1
  6
CONTINUOUS
 62
     7
  5
C2
 10
0.519431
 20
-2.201054
 30
0.0
  0
VERTEX
  8
LAYER-1
  6
CONTINUOUS
 62
     7
  5
C3
 10
0.514245
 20
-2.197772
 30
0.0
  0
VERTEX
  8
LAYER-1
  6
CONTINUOUS
 62
     7
  5
C4
 10
0.508906
 20
-2.194749
 30
0.0
  0
VERTEX
  8
LAYER-1
  6
CONTINUOUS
 62
     7
  5
C5
 10
0.503424
 20
-2.19199
 30
0.0
  0
VERTEX
  8
LAYER-1
  6
CONTINUOUS
 62
     7
  5
C6
 10
0.497814
 20
-2.189505
 30
0.0
  0
VERTEX
  8
LAYER-1
  6
CONTINUOUS
 62
     7
  5
C7
 10
0.492088
 20
-2.187298
 30
0.0
  0
VERTEX
  8
LAYER-1
  6
CONTINUOUS
 62
     7
  5
C8
 10
0.486262
 20
-2.185375
 30
0.0
  0
VERTEX
  8
LAYER-1
  6
CONTINUOUS
 62
     7
  5
C9
 10
0.480347
 20
-2.183739
 30
0.0
  0
VERTEX
  8
LAYER-1
  6
CONTINUOUS
 62
     7
  5
CA
 10
0.47436
 20
-2.182396
 30
0.0
  0
VERTEX
  8
LAYER-1
  6
CONTINUOUS
 62
     7
  5
CB
 10
0.468313
 20
-2.181349
 30
0.0
  0
VERTEX
  8
LAYER-1
  6
CONTINUOUS
 62
     7
  5
CC
 10
0.462224
 20
-2.180599
 30
0.0
  0
VERTEX
  8
LAYER-1
  6
CONTINUOUS
 62
     7
  5
CD
 10
0.456103
 20
-2.180149
 30
0.0
  0
VERTEX
  8
LAYER-1
  6
CONTINUOUS
 62
     7
  5
CE
 10
0.450031
 20
-2.18
 30
0.0
  0
VERTEX
  8
LAYER-1
  6
CONTINUOUS
 62
     7
  5
CF
 10
0.443897
 20
-2.180149
 30
0.0
  0
VERTEX
  8
LAYER-1
  6
CONTINUOUS
 62
     7
  5
D0
 10
0.437776
 20
-2.180599
 30
0.0
  0
VERTEX
  8
LAYER-1
  6
CONTINUOUS
 62
     7
  5
D1
 10
0.431687
 20
-2.181349
 30
0.0
  0
VERTEX
  8
LAYER-1
  6
CONTINUOUS
 62
     7
  5
D2
 10
0.42564
 20
-2.182396
 30
0.0
  0
VERTEX
  8
LAYER-1
  6
CONTINUOUS
 62
     7
  5
D3
 10
0.419653
 20
-2.183739
 30
0.0
  0
VERTEX
  8
LAYER-1
  6
CONTINUOUS
 62
     7
  5
D4
 10
0.413738
 20
-2.185375
 30
0.0
  0
VERTEX
  8
LAYER-1
  6
CONTINUOUS
 62
     7
  5
D5
 10
0.407912
 20
-2.187298
 30
0.0
  0
VERTEX
  8
LAYER-1
  6
CONTINUOUS
 62
     7
  5
D6
 10
0.402185
 20
-2.189505
 30
0.0
  0
VERTEX
  8
LAYER-1
  6
CONTINUOUS
 62
     7
  5
D7
 10
0.396576
 20
-2.19199
 30
0.0
  0
VERTEX
  8
LAYER-1
  6
CONTINUOUS
 62
     7
  5
D8
 10
0.391094
 20
-2.194749
 30
0.0
  0
VERTEX
  8
LAYER-1
  6
CONTINUOUS
 62
     7
  5
D9
 10
0.385755
 20
-2.197772
 30
0.0
  0
VERTEX
  8
LAYER-1
  6
CONTINUOUS
 62
     7
  5
DA
 10
0.380569
 20
-2.201054
 30
0.0
  0
VERTEX
  8
LAYER-1
  6
CONTINUOUS
 62
     7
  5
DB
 10
0.375553
 20
-2.204586
 30
0.0
  0
VERTEX
  8
LAYER-1
  6
CONTINUOUS
 62
     7
  5
DC
 10
0.370714
 20
-2.208361
 30
0.0
  0
VERTEX
  8
LAYER-1
  6
CONTINUOUS
 62
     7
  5
DD
 10
0.366068
 20
-2.212368
 30
0.0
  0
VERTEX
  8
LAYER-1
  6
CONTINUOUS
 62
     7
  5
DE
 10
0.361622
 20
-2.2166
 30
0.0
  0
VERTEX
  8
LAYER-1
  6
CONTINUOUS
 62
     7
  5
DF
 10
0.35739
 20
-2.221044
 30
0.0
  0
VERTEX
  8
LAYER-1
  6
CONTINUOUS
 62
     7
  5
E0
 10
0.353381
 20
-2.22569
 30
0.0
  0
VERTEX
  8
LAYER-1
  6
CONTINUOUS
 62
     7
  5
E1
 10
0.349605
 20
-2.230527
 30
0.0
  0
VERTEX
  8
LAYER-1
  6
CONTINUOUS
 62
     7
  5
E2
 10
0.346071
 20
-2.235544
 30
0.0
  0
VERTEX
  8
LAYER-1
  6
CONTINUOUS
 62
     7
  5
E3
 10
0.342788
 20
-2.240727
 30
0.0
  0
VERTEX
  8
LAYER-1
  6
CONTINUOUS
 62
     7
  5
E4
 10
0.339763
 20
-2.246067
 30
0.0
  0
VERTEX
  8
LAYER-1
  6
CONTINUOUS
 62
     7
  5
E5
 10
0.337004
 20
-2.251547
 30
0.0
  0
VERTEX
  8
LAYER-1
  6
CONTINUOUS
 62
     7
  5
E6
 10
0.334517
 20
-2.257157
 30
0.0
  0
VERTEX
  8
LAYER-1
  6
CONTINUOUS
 62
     7
  5
E7
 10
0.332309
 20
-2.262882
 30
0.0
  0
VERTEX
  8
LAYER-1
  6
CONTINUOUS
 62
     7
  5
E8
 10
0.330383
 20
-2.268709
 30
0.0
  0
VERTEX
  8
LAYER-1
  6
CONTINUOUS
 62
     7
  5
E9
 10
0.328747
 20
-2.274622
 30
0.0
  0
VERTEX
  8
LAYER-1
  6
CONTINUOUS
 62
     7
  5
EA
 10
0.327402
 20
-2.28061
 30
0.0
  0
VERTEX
  8
LAYER-1
  6
CONTINUOUS
 62
     7
  5
EB
 10
0.326353
 20
-2.286655
 30
0.0
  0
VERTEX
  8
LAYER-1
  6
CONTINUOUS
 62
     7
  5
EC
 10
0.325602
 20
-2.292746
 30
0.0
  0
VERTEX
  8
LAYER-1
  6
CONTINUOUS
 62
     7
  5
ED
 10
0.325151
 20
-2.298865
 30
0.0
  0
VERTEX
  8
LAYER-1
  6
CONTINUOUS
 62
     7
  5
EE
 10
0.325
 20
-2.305
 30
0.0
  0
VERTEX
  8
LAYER-1
  6
CONTINUOUS
 62
     7
  5
EF
 10
0.325151
 20
-2.311135
 30
0.0
  0
VERTEX
  8
LAYER-1
  6
CONTINUOUS
 62
     7
  5
F0
 10
0.325602
 20
-2.317254
 30
0.0
  0
VERTEX
  8
LAYER-1
  6
CONTINUOUS
 62
     7
  5
F1
 10
0.326353
 20
-2.323345
 30
0.0
  0
VERTEX
  8
LAYER-1
  6
CONTINUOUS
 62
     7
  5
F2
 10
0.327402
 20
-2.32939
 30
0.0
  0
VERTEX
  8
LAYER-1
  6
CONTINUOUS
 62
     7
  5
F3
 10
0.328747
 20
-2.335378
 30
0.0
  0
VERTEX
  8
LAYER-1
  6
CONTINUOUS
 62
     7
  5
F4
 10
0.330383
 20
-2.341291
 30
0.0
  0
VERTEX
  8
LAYER-1
  6
CONTINUOUS
 62
     7
  5
F5
 10
0.332309
 20
-2.347119
 30
0.0
  0
VERTEX
  8
LAYER-1
  6
CONTINUOUS
 62
     7
  5
F6
 10
0.334517
 20
-2.352843
 30
0.0
  0
VERTEX
  8
LAYER-1
  6
CONTINUOUS
 62
     7
  5
F7
 10
0.337004
 20
-2.358453
 30
0.0
  0
VERTEX
  8
LAYER-1
  6
CONTINUOUS
 62
     7
  5
F8
 10
0.339763
 20
-2.363933
 30
0.0
  0
VERTEX
  8
LAYER-1
  6
CONTINUOUS
 62
     7
  5
F9
 10
0.342788
 20
-2.369273
 30
0.0
  0
VERTEX
  8
LAYER-1
  6
CONTINUOUS
 62
     7
  5
FA
 10
0.346071
 20
-2.374456
 30
0.0
  0
VERTEX
  8
LAYER-1
  6
CONTINUOUS
 62
     7
  5
FB
 10
0.349605
 20
-2.379473
 30
0.0
  0
VERTEX
  8
LAYER-1
  6
CONTINUOUS
 62
     7
  5
FC
 10
0.353381
 20
-2.38431
 30
0.0
  0
VERTEX
  8
LAYER-1
  6
CONTINUOUS
 62
     7
  5
FD
 10
0.35739
 20
-2.388956
 30
0.0
  0
VERTEX
  8
LAYER-1
  6
CONTINUOUS
 62
     7
  5
FE
 10
0.361622
 20
-2.3934
 30
0.0
  0
VERTEX
  8
LAYER-1
  6
CONTINUOUS
 62
     7
  5
FF
 10
0.366068
 20
-2.397632
 30
0.0
  0
VERTEX
  8
LAYER-1
  6
CONTINUOUS
 62
     7
  5
100
 10
0.370714
 20
-2.401639
 30
0.0
  0
VERTEX
  8
LAYER-1
  6
CONTINUOUS
 62
     7
  5
101
 10
0.375553
 20
-2.405414
 30
0.0
  0
VERTEX
  8
LAYER-1
  6
CONTINUOUS
 62
     7
  5
102
 10
0.380569
 20
-2.408946
 30
0.0
  0
VERTEX
  8
LAYER-1
  6
CONTINUOUS
 62
     7
  5
103
 10
0.385755
 20
-2.412228
 30
0.0
  0
VERTEX
  8
LAYER-1
  6
CONTINUOUS
 62
     7
  5
104
 10
0.391094
 20
-2.415252
 30
0.0
  0
VERTEX
  8
LAYER-1
  6
CONTINUOUS
 62
     7
  5
105
 10
0.396576
 20
-2.41801
 30
0.0
  0
VERTEX
  8
LAYER-1
  6
CONTINUOUS
 62
     7
  5
106
 10
0.402185
 20
-2.420495
 30
0.0
  0
VERTEX
  8
LAYER-1
  6
CONTINUOUS
 62
     7
  5
107
 10
0.407912
 20
-2.422702
 30
0.0
  0
VERTEX
  8
LAYER-1
  6
CONTINUOUS
 62
     7
  5
108
 10
0.413738
 20
-2.424625
 30
0.0
  0
VERTEX
  8
LAYER-1
  6
CONTINUOUS
 62
     7
  5
109
 10
0.419653
 20
-2.426261
 30
0.0
  0
VERTEX
  8
LAYER-1
  6
CONTINUOUS
 62
     7
  5
10A
 10
0.42564
 20
-2.427604
 30
0.0
  0
VERTEX
  8
LAYER-1
  6
CONTINUOUS
 62
     7
  5
10B
 10
0.431687
 20
-2.428652
 30
0.0
  0
VERTEX
  8
LAYER-1
  6
CONTINUOUS
 62
     7
  5
10C
 10
0.437776
 20
-2.429401
 30
0.0
  0
VERTEX
  8
LAYER-1
  6
CONTINUOUS
 62
     7
  5
10D
 10
0.443897
 20
-2.429851
 30
0.0
  0
VERTEX
  8
LAYER-1
  6
CONTINUOUS
 62
     7
  5
10E
 10
0.450031
 20
-2.43
 30
0.0
  0
VERTEX
  8
LAYER-1
  6
CONTINUOUS
 62
     7
  5
10F
 10
0.456103
 20
-2.429851
 30
0.0
  0
VERTEX
  8
LAYER-1
  6
CONTINUOUS
 62
     7
  5
110
 10
0.462224
 20
-2.429401
 30
0.0
  0
VERTEX
  8
LAYER-1
  6
CONTINUOUS
 62
     7
  5
111
 10
0.468313
 20
-2.428652
 30
0.0
  0
VERTEX
  8
LAYER-1
  6
CONTINUOUS
 62
     7
  5
112
 10
0.47436
 20
-2.427604
 30
0.0
  0
VERTEX
  8
LAYER-1
  6
CONTINUOUS
 62
     7
  5
113
 10
0.480347
 20
-2.426261
 30
0.0
  0
VERTEX
  8
LAYER-1
  6
CONTINUOUS
 62
     7
  5
114
 10
0.486262
 20
-2.424625
 30
0.0
  0
VERTEX
  8
LAYER-1
  6
CONTINUOUS
 62
     7
  5
115
 10
0.492088
 20
-2.422702
 30
0.0
  0
VERTEX
  8
LAYER-1
  6
CONTINUOUS
 62
     7
  5
116
 10
0.497814
 20
-2.420495
 30
0.0
  0
VERTEX
  8
LAYER-1
  6
CONTINUOUS
 62
     7
  5
117
 10
0.503424
 20
-2.41801
 30
0.0
  0
VERTEX
  8
LAYER-1
  6
CONTINUOUS
 62
     7
  5
118
 10
0.508906
 20
-2.415252
 30
0.0
  0
VERTEX
  8
LAYER-1
  6
CONTINUOUS
 62
     7
  5
119
 10
0.514245
 20
-2.412228
 30
0.0
  0
VERTEX
  8
LAYER-1
  6
CONTINUOUS
 62
     7
  5
11A
 10
0.519431
 20
-2.408946
 30
0.0
  0
VERTEX
  8
LAYER-1
  6
CONTINUOUS
 62
     7
  5
11B
 10
0.524447
 20
-2.405414
 30
0.0
  0
VERTEX
  8
LAYER-1
  6
CONTINUOUS
 62
     7
  5
11C
 10
0.529286
 20
-2.401639
 30
0.0
  0
VERTEX
  8
LAYER-1
  6
CONTINUOUS
 62
     7
  5
11D
 10
0.533932
 20
-2.397632
 30
0.0
  0
VERTEX
  8
LAYER-1
  6
CONTINUOUS
 62
     7
  5
11E
 10
0.538378
 20
-2.3934
 30
0.0
  0
VERTEX
  8
LAYER-1
  6
CONTINUOUS
 62
     7
  5
11F
 10
0.54261
 20
-2.388956
 30
0.0
  0
VERTEX
  8
LAYER-1
  6
CONTINUOUS
 62
     7
  5
120
 10
0.546619
 20
-2.38431
 30
0.0
  0
VERTEX
  8
LAYER-1
  6
CONTINUOUS
 62
     7
  5
121
 10
0.550395
 20
-2.379473
 30
0.0
  0
VERTEX
  8
LAYER-1
  6
CONTINUOUS
 62
     7
  5
122
 10
0.553929
 20
-2.374456
 30
0.0
  0
VERTEX
  8
LAYER-1
  6
CONTINUOUS
 62
     7
  5
123
 10
0.557212
 20
-2.369273
 30
0.0
  0
VERTEX
  8
LAYER-1
  6
CONTINUOUS
 62
     7
  5
124
 10
0.560237
 20
-2.363933
 30
0.0
  0
VERTEX
  8
LAYER-1
  6
CONTINUOUS
 62
     7
  5
125
 10
0.562996
 20
-2.358453
 30
0.0
  0
VERTEX
  8
LAYER-1
  6
CONTINUOUS
 62
     7
  5
126
 10
0.565483
 20
-2.352843
 30
0.0
  0
VERTEX
  8
LAYER-1
  6
CONTINUOUS
 62
     7
  5
127
 10
0.567691
 20
-2.347119
 30
0.0
  0
VERTEX
  8
LAYER-1
  6
CONTINUOUS
 62
     7
  5
128
 10
0.569617
 20
-2.341291
 30
0.0
  0
VERTEX
  8
LAYER-1
  6
CONTINUOUS
 62
     7
  5
129
 10
0.571253
 20
-2.335378
 30
0.0
  0
VERTEX
  8
LAYER-1
  6
CONTINUOUS
 62
     7
  5
12A
 10
0.572598
 20
-2.32939
 30
0.0
  0
VERTEX
  8
LAYER-1
  6
CONTINUOUS
 62
     7
  5
12B
 10
0.573647
 20
-2.323345
 30
0.0
  0
VERTEX
  8
LAYER-1
  6
CONTINUOUS
 62
     7
  5
12C
 10
0.574398
 20
-2.317254
 30
0.0
  0
VERTEX
  8
LAYER-1
  6
CONTINUOUS
 62
     7
  5
12D
 10
0.574849
 20
-2.311135
 30
0.0
  0
SEQEND
  8
LAYER-1
  6
CONTINUOUS
  5
12E
  0
POLYLINE
  8
LAYER-1
  6
CONTINUOUS
 62
     7
  5
12F
 66
     1
 10
0.0
 20
0.0
 30
0.0
 40
0.028
 41
0.028
  0
VERTEX
  8
LAYER-1
  6
CONTINUOUS
 62
     7
  5
130
 10
-0.375
 20
-3.825
 30
0.0
  0
VERTEX
  8
LAYER-1
  6
CONTINUOUS
 62
     7
  5
131
 10
-0.375
 20
0.425
 30
0.0
  0
SEQEND
  8
LAYER-1
  6
CONTINUOUS
  5
132
  0
POLYLINE
  8
LAYER-1
  6
CONTINUOUS
 62
     7
  5
133
 66
     1
 10
0.0
 20
0.0
 30
0.0
 40
0.028
 41
0.028
  0
VERTEX
  8
LAYER-1
  6
CONTINUOUS
 62
     7
  5
134
 10
0.625
 20
-3.825
 30
0.0
  0
VERTEX
  8
LAYER-1
  6
CONTINUOUS
 62
     7
  5
135
 10
-0.375
 20
-3.825
 30
0.0
  0
SEQEND
  8
LAYER-1
  6
CONTINUOUS
  5
136
  0
POLYLINE
  8
LAYER-1
  6
CONTINUOUS
 62
     7
  5
137
 66
     1
 10
0.0
 20
0.0
 30
0.0
 40
0.028
 41
0.028
  0
VERTEX
  8
LAYER-1
  6
CONTINUOUS
 62
     7
  5
138
 10
0.625
 20
-1.53
 30
0.0
  0
VERTEX
  8
LAYER-1
  6
CONTINUOUS
 62
     7
  5
139
 10
0.625
 20
-3.825
 30
0.0
  0
SEQEND
  8
LAYER-1
  6
CONTINUOUS
  5
13A
  0
POLYLINE
  8
LAYER-1
  6
CONTINUOUS
 62
     7
  5
13B
 66
     1
 10
0.0
 20
0.0
 30
0.0
 40
0.028
 41
0.028
  0
VERTEX
  8
LAYER-1
  6
CONTINUOUS
 62
     7
  5
13C
 10
-0.375
 20
0.425
 30
0.0
  0
VERTEX
  8
LAYER-1
  6
CONTINUOUS
 62
     7
  5
13D
 10
0.525
 20
0.425
 30
0.0
  0
SEQEND
  8
LAYER-1
  6
CONTINUOUS
  5
13E
  0
POLYLINE
  8
LAYER-1
  6
CONTINUOUS
 62
     7
  5
13F
 66
     1
 10
0.0
 20
0.0
 30
0.0
 40
0.028
 41
0.028
  0
VERTEX
  8
LAYER-1
  6
CONTINUOUS
 62
     7
  5
140
 10
0.525
 20
-1.53
 30
0.0
  0
VERTEX
  8
LAYER-1
  6
CONTINUOUS
 62
     7
  5
141
 10
0.625
 20
-1.53
 30
0.0
  0
SEQEND
  8
LAYER-1
  6
CONTINUOUS
  5
142
  0
POLYLINE
  8
LAYER-1
  6
CONTINUOUS
 62
     7
  5
143
 66
     1
 10
0.0
 20
0.0
 30
0.0
 40
0.028
 41
0.028
  0
VERTEX
  8
LAYER-1
  6
CONTINUOUS
 62
     7
  5
144
 10
0.525
 20
-1.53
 30
0.0
  0
VERTEX
  8
LAYER-1
  6
CONTINUOUS
 62
     7
  5
145
 10
0.525
 20
0.425
 30
0.0
  0
SEQEND
  8
LAYER-1
  6
CONTINUOUS
  5
146
  0
LINE
  8
LAYER-1
  6
CONTINUOUS
 62
     7
  5
147
 10
0.798621
 20
0.425
 30
0.0
 11
1.125
 21
0.425
 31
0.0
  0
LINE
  8
LAYER-1
  6
CONTINUOUS
 62
     7
  5
148
 10
0.0625
 20
0.0
 30
0.0
 11
1.125
 21
0.0
 31
0.0
  0
SOLID
  8
LAYER-1
 62
     7
  5
149
 10
1.0
 20
0.425
 30
0.0
 11
0.966506
 21
0.55
 31
0.0
 12
1.033494
 22
0.55
 32
0.0
 13
1.033494
 23
0.55
 33
0.0
  0
LINE
  8
LAYER-1
  6
CONTINUOUS
 62
     7
  5
14A
 10
1.0
 20
0.425
 30
0.0
 11
1.0
 21
0.725
 31
0.0
  0
SOLID
  8
LAYER-1
 62
     7
  5
14B
 10
1.0
 20
0.0
 30
0.0
 11
1.033494
 21
-0.125
 31
0.0
 12
0.966506
 22
-0.125
 32
0.0
 13
0.966506
 23
-0.125
 33
0.0
  0
LINE
  8
LAYER-1
  6
CONTINUOUS
 62
     7
  5
14C
 10
1.0
 20
0.0
 30
0.0
 11
1.0
 21
-0.3
 31
0.0
  0
TEXT
  8
LAYER-1
 62
     7
  5
14D
 10
0.847222
 20
0.122222
 30
0.0
 40
0.1
  1
.425"
 41
0.611111
  0
LINE
  8
LAYER-1
  6
CONTINUOUS
 62
     7
  5
14E
 10
0.84375
 20
0.425
 30
0.0
 11
1.525
 21
0.425
 31
0.0
  0
LINE
  8
LAYER-1
  6
CONTINUOUS
 62
     7
  5
14F
 10
0.6875
 20
-1.53
 30
0.0
 11
1.525
 21
-1.53
 31
0.0
  0
SOLID
  8
LAYER-1
 62
     7
  5
150
 10
1.4
 20
0.425
 30
0.0
 11
1.433494
 21
0.3
 31
0.0
 12
1.366506
 22
0.3
 32
0.0
 13
1.366506
 23
0.3
 33
0.0
  0
SOLID
  8
LAYER-1
 62
     7
  5
151
 10
1.4
 20
-1.53
 30
0.0
 11
1.366506
 21
-1.405
 31
0.0
 12
1.433494
 22
-1.405
 32
0.0
 13
1.433494
 23
-1.405
 33
0.0
  0
LINE
  8
LAYER-1
  6
CONTINUOUS
 62
     7
  5
152
 10
1.4
 20
0.425
 30
0.0
 11
1.4
 21
-1.53
 31
0.0
  0
TEXT
  8
LAYER-1
 62
     7
  5
153
 10
1.2125
 20
-0.642778
 30
0.0
 40
0.1
  1
1.955"
 41
0.625
  0
LINE
  8
LAYER-1
  6
CONTINUOUS
 62
     7
  5
154
 10
0.84375
 20
0.425
 30
0.0
 11
1.925
 21
0.425
 31
0.0
  0
LINE
  8
LAYER-1
  6
CONTINUOUS
 62
     7
  5
155
 10
0.5125
 20
-2.305
 30
0.0
 11
1.925
 21
-2.305
 31
0.0
  0
SOLID
  8
LAYER-1
 62
     7
  5
156
 10
1.8
 20
0.425
 30
0.0
 11
1.833494
 21
0.3
 31
0.0
 12
1.766506
 22
0.3
 32
0.0
 13
1.766506
 23
0.3
 33
0.0
  0
SOLID
  8
LAYER-1
 62
     7
  5
157
 10
1.8
 20
-2.305
 30
0.0
 11
1.766506
 21
-2.18
 31
0.0
 12
1.833494
 22
-2.18
 32
0.0
 13
1.833494
 23
-2.18
 33
0.0
  0
LINE
  8
LAYER-1
  6
CONTINUOUS
 62
     7
  5
158
 10
1.8
 20
0.425
 30
0.0
 11
1.8
 21
-2.305
 31
0.0
  0
TEXT
  8
LAYER-1
 62
     7
  5
159
 10
1.6125
 20
-1.030278
 30
0.0
 40
0.1
  1
2.730"
 41
0.625
  0
LINE
  8
LAYER-1
  6
CONTINUOUS
 62
     7
  5
15A
 10
0.625
 20
-1.125
 30
0.0
 11
0.625
 21
1.834722
 31
0.0
  0
LINE
  8
LAYER-1
  6
CONTINUOUS
 62
     7
  5
15B
 10
0.0
 20
0.0625
 30
0.0
 11
0.0
 21
1.834722
 31
0.0
  0
SOLID
  8
LAYER-1
 62
     7
  5
15C
 10
0.625
 20
1.709722
 30
0.0
 11
0.75
 21
1.743216
 31
0.0
 12
0.75
 22
1.676228
 32
0.0
 13
0.75
 23
1.676228
 33
0.0
  0
LINE
  8
LAYER-1
  6
CONTINUOUS
 62
     7
  5
15D
 10
0.625
 20
1.709722
 30
0.0
 11
0.925
 21
1.709722
 31
0.0
  0
SOLID
  8
LAYER-1
 62
     7
  5
15E
 10
0.0
 20
1.709722
 30
0.0
 11
-0.125
 21
1.676228
 31
0.0
 12
-0.125
 22
1.743216
 32
0.0
 13
-0.125
 23
1.743216
 33
0.0
  0
LINE
  8
LAYER-1
  6
CONTINUOUS
 62
     7
  5
15F
 10
0.0
 20
1.709722
 30
0.0
 11
-0.3
 21
1.709722
 31
0.0
  0
TEXT
  8
LAYER-1
 62
     7
  5
160
 10
0.159722
 20
1.619444
 30
0.0
 40
0.1
  1
.625"
 41
0.611111
  0
LINE
  8
LAYER-1
  6
CONTINUOUS
 62
     7
  5
161
 10
0.625
 20
-1.1875
 30
0.0
 11
0.625
 21
2.234722
 31
0.0
  0
LINE
  8
LAYER-1
  6
CONTINUOUS
 62
     7
  5
162
 10
-0.375
 20
0.1875
 30
0.0
 11
-0.375
 21
2.234722
 31
0.0
  0
SOLID
  8
LAYER-1
 62
     7
  5
163
 10
0.625
 20
2.109722
 30
0.0
 11
0.5
 21
2.076229
 31
0.0
 12
0.5
 22
2.143216
 32
0.0
 13
0.5
 23
2.143216
 33
0.0
  0
SOLID
  8
LAYER-1
 62
     7
  5
164
 10
-0.375
 20
2.109722
 30
0.0
 11
-0.25
 21
2.143216
 31
0.0
 12
-0.25
 22
2.076229
 32
0.0
 13
-0.25
 23
2.076229
 33
0.0
  0
LINE
  8
LAYER-1
  6
CONTINUOUS
 62
     7
  5
165
 10
0.625
 20
2.109722
 30
0.0
 11
-0.375
 21
2.109722
 31
0.0
  0
TEXT
  8
LAYER-1
 62
     7
  5
166
 10
-0.0625
 20
2.019444
 30
0.0
 40
0.1
  1
1.000"
 41
0.625
  0
LINE
  8
LAYER-1
  6
CONTINUOUS
 62
     7
  5
167
 10
0.84375
 20
0.425
 30
0.0
 11
2.5
 21
0.425
 31
0.0
  0
LINE
  8
LAYER-1
  6
CONTINUOUS
 62
     7
  5
168
 10
0.3125
 20
-3.825
 30
0.0
 11
2.5
 21
-3.825
 31
0.0
  0
SOLID
  8
LAYER-1
 62
     7
  5
169
 10
2.375
 20
0.425
 30
0.0
 11
2.408494
 21
0.3
 31
0.0
 12
2.341506
 22
0.3
 32
0.0
 13
2.341506
 23
0.3
 33
0.0
  0
SOLID
  8
LAYER-1
 62
     7
  5
16A
 10
2.375
 20
-3.825
 30
0.0
 11
2.341506
 21
-3.7
 31
0.0
 12
2.408494
 22
-3.7
 32
0.0
 13
2.408494
 23
-3.7
 33
0.0
  0
LINE
  8
LAYER-1
  6
CONTINUOUS
 62
     7
  5
16B
 10
2.375
 20
0.425
 30
0.0
 11
2.375
 21
-3.825
 31
0.0
  0
TEXT
  8
LAYER-1
 62
     7
  5
16C
 10
2.1875
 20
-1.790278
 30
0.0
 40
0.1
  1
4.250"
 41
0.625
  0
LINE
  8
LAYER-1
  6
CONTINUOUS
 62
     7
  5
16D
 10
0.525
 20
0.4875
 30
0.0
 11
0.525
 21
1.0
 31
0.0
  0
LINE
  8
LAYER-1
  6
CONTINUOUS
 62
     7
  5
16E
 10
0.625
 20
0.1875
 30
0.0
 11
0.625
 21
1.0
 31
0.0
  0
SOLID
  8
LAYER-1
 62
     7
  5
16F
 10
0.525
 20
0.875
 30
0.0
 11
0.4
 21
0.841506
 31
0.0
 12
0.4
 22
0.908494
 32
0.0
 13
0.4
 23
0.908494
 33
0.0
  0
LINE
  8
LAYER-1
  6
CONTINUOUS
 62
     7
  5
170
 10
0.525
 20
0.875
 30
0.0
 11
0.25
 21
0.875
 31
0.0
  0
SOLID
  8
LAYER-1
 62
     7
  5
171
 10
0.625
 20
0.875
 30
0.0
 11
0.75
 21
0.908494
 31
0.0
 12
0.75
 22
0.841506
 32
0.0
 13
0.75
 23
0.841506
 33
0.0
  0
LINE
  8
LAYER-1
  6
CONTINUOUS
 62
     7
  5
172
 10
0.625
 20
0.875
 30
0.0
 11
0.925
 21
0.875
 31
0.0
  0
TEXT
  8
LAYER-1
 62
     7
  5
173
 10
-0.055556
 20
0.784722
 30
0.0
 40
0.1
  1
.100"
 41
0.611111
  0
LINE
  8
LAYER-1
  6
CONTINUOUS
 62
     7
  5
174
 10
0.625
 20
-2.4925
 30
0.0
 11
0.625
 21
-2.75
 31
0.0
  0
LINE
  8
LAYER-1
  6
CONTINUOUS
 62
     7
  5
175
 10
0.45
 20
-3.0625
 30
0.0
 11
0.45
 21
-2.5
 31
0.0
  0
SOLID
  8
LAYER-1
 62
     7
  5
176
 10
0.625
 20
-2.625
 30
0.0
 11
0.75
 21
-2.591506
 31
0.0
 12
0.75
 22
-2.658494
 32
0.0
 13
0.75
 23
-2.658494
 33
0.0
  0
LINE
  8
LAYER-1
  6
CONTINUOUS
 62
     7
  5
177
 10
0.625
 20
-2.625
 30
0.0
 11
1.152778
 21
-2.625
 31
0.0
  0
SOLID
  8
LAYER-1
 62
     7
  5
178
 10
0.45
 20
-2.625
 30
0.0
 11
0.325
 21
-2.658494
 31
0.0
 12
0.325
 22
-2.591506
 32
0.0
 13
0.325
 23
-2.591506
 33
0.0
  0
LINE
  8
LAYER-1
  6
CONTINUOUS
 62
     7
  5
179
 10
0.45
 20
-2.625
 30
0.0
 11
0.15
 21
-2.625
 31
0.0
  0
TEXT
  8
LAYER-1
 62
     7
  5
17A
 10
1.152778
 20
-2.715278
 30
0.0
 40
0.1
  1
.175"
 41
0.611111
  0
TEXT
  8
LAYER-1
 62
     7
  5
17B
 10
-4.490278
 20
-2.155556
 30
0.0
 40
0.2
  1
Mounting Plate Spacer/Pointer
 41
0.600096
  0
TEXT
  8
LAYER-1
 62
     7
  5
17C
 10
-3.616667
 20
-2.780556
 30
0.0
 40
0.2
  1
.375 Thick Plate
 41
0.583333
  0
LINE
  8
LAYER-1
  6
CONTINUOUS
 62
     7
  5
17D
 10
-0.118585
 20
-0.039528
 30
0.0
 11
-1.125
 21
-0.375
 31
0.0
  0
LINE
  8
LAYER-1
  6
CONTINUOUS
 62
     7
  5
17E
 10
-1.125
 20
-0.375
 30
0.0
 11
-0.875
 21
-0.375
 31
0.0
  0
SOLID
  8
LAYER-1
 62
     7
  5
17F
 10
0.118585
 20
0.039528
 30
0.0
 11
0.010053
 21
-0.030953
 31
0.0
 12
-0.010647
 22
0.032756
 32
0.0
 13
-0.010647
 23
0.032756
 33
0.0
  0
SOLID
  8
LAYER-1
 62
     7
  5
180
 10
-0.118585
 20
-0.039528
 30
0.0
 11
-0.010053
 21
0.030953
 31
0.0
 12
0.010647
 22
-0.032756
 32
0.0
 13
0.010647
 23
-0.032756
 33
0.0
  0
LINE
  8
LAYER-1
  6
CONTINUOUS
 62
     7
  5
181
 10
0.118585
 20
0.039528
 30
0.0
 11
-0.118585
 21
-0.039528
 31
0.0
  0
TEXT
  8
LAYER-1
 62
     7
  5
182
 10
-0.875
 20
-0.465278
 30
0.0
 40
0.1
  1
» .250"
 41
0.634921
  0
LINE
  8
LAYER-1
  6
CONTINUOUS
 62
     7
  5
183
 10
0.538388
 20
-2.216612
 30
0.0
 11
0.875
 21
-1.88
 31
0.0
  0
LINE
  8
LAYER-1
  6
CONTINUOUS
 62
     7
  5
184
 10
0.875
 20
-1.88
 30
0.0
 11
1.125
 21
-1.88
 31
0.0
  0
SOLID
  8
LAYER-1
 62
     7
  5
185
 10
0.361612
 20
-2.393388
 30
0.0
 11
0.426316
 21
-2.281316
 31
0.0
 12
0.473684
 22
-2.328684
 32
0.0
 13
0.473684
 23
-2.328684
 33
0.0
  0
SOLID
  8
LAYER-1
 62
     7
  5
186
 10
0.538388
 20
-2.216612
 30
0.0
 11
0.473683
 21
-2.328684
 31
0.0
 12
0.426316
 22
-2.281317
 32
0.0
 13
0.426316
 23
-2.281317
 33
0.0
  0
LINE
  8
LAYER-1
  6
CONTINUOUS
 62
     7
  5
187
 10
0.361612
 20
-2.393388
 30
0.0
 11
0.538388
 21
-2.216612
 31
0.0
  0
TEXT
  8
LAYER-1
 62
     7
  5
188
 10
1.125
 20
-1.970278
 30
0.0
 40
0.1
  1
» .250"
 41
0.634921
  0
ENDSEC
  0
EOF
