  0
SECTION
  2
HEADER
  9
$ACADVER
  1
AC1009
  9
$INSBASE
 10
0.0
 20
0.0
 30
0.0
  9
$EXTMIN
 10
-5.166667
 20
-4.131944
 30
0.0
  9
$EXTMAX
 10
5.166667
 20
4.131944
 30
0.0
  9
$LIMMIN
 10
0.0
 20
0.0
  9
$LIMMAX
 10
0.0
 20
0.0
  9
$ORTHOMODE
 70
     0
  9
$REGENMODE
 70
     1
  9
$FILLMODE
 70
     1
  9
$QTEXTMODE
 70
     0
  9
$MIRRTEXT
 70
     1
  9
$DRAGMODE
 70
     2
  9
$LTSCALE
 40
1.0
  9
$OSMODE
 70
     0
  9
$ATTMODE
 70
     1
  9
$TEXTSIZE
 40
0.2
  9
$TRACEWID
 40
0.05
  9
$TEXTSTYLE
  7
STANDARD
  9
$CLAYER
  8
0
  9
$CELTYPE
  6
CONTINUOUS
  9
$CECOLOR
 62
   256
  9
$DIMSCALE
 40
1.0
  9
$DIMASZ
 40
0.18
  9
$DIMEXO
 40
0.0625
  9
$DIMDLI
 40
0.38
  9
$DIMRND
 40
0.0
  9
$DIMDLE
 40
0.0
  9
$DIMEXE
 40
0.18
  9
$DIMTP
 40
0.0
  9
$DIMTM
 40
0.0
  9
$DIMTXT
 40
0.18
  9
$DIMCEN
 40
0.09
  9
$DIMTSZ
 40
0.0
  9
$DIMTOL
 70
     0
  9
$DIMLIM
 70
     0
  9
$DIMTIH
 70
     1
  9
$DIMTOH
 70
     1
  9
$DIMSE1
 70
     0
  9
$DIMSE2
 70
     0
  9
$DIMTAD
 70
     0
  9
$DIMZIN
 70
     0
  9
$DIMBLK
  1

  9
$DIMASO
 70
     1
  9
$DIMSHO
 70
     1
  9
$DIMPOST
  1

  9
$DIMAPOST
  1

  9
$DIMALT
 70
     0
  9
$DIMALTD
 70
     2
  9
$DIMALTF
 40
25.4
  9
$DIMLFAC
 40
1.0
  9
$DIMTOFL
 70
     0
  9
$DIMTVP
 40
0.0
  9
$DIMTIX
 70
     0
  9
$DIMSOXD
 70
     0
  9
$DIMSAH
 70
     0
  9
$DIMBLK1
  1

  9
$DIMBLK2
  1

  9
$DIMSTYLE
  2
STANDARD
  9
$DIMCLRD
 70
     0
  9
$DIMCLRE
 70
     0
  9
$DIMCLRT
 70
     0
  9
$DIMTFAC
 40
1.0
  9
$DIMGAP
 40
0.09
  9
$LUNITS
 70
     2
  9
$LUPREC
 70
     4
  9
$AXISMODE
 70
     0
  9
$AXISUNIT
 10
0.0
 20
0.0
  9
$SKETCHINC
 40
0.1
  9
$FILLETRAD
 40
0.0
  9
$AUNITS
 70
     0
  9
$AUPREC
 70
     0
  9
$MENU
  1
acad
  9
$ELEVATION
 40
0.0
  9
$PELEVATION
 40
0.0
  9
$THICKNESS
 40
0.0
  9
$LIMCHECK
 70
     0
  9
$BLIPMODE
 70
     1
  9
$CHAMFERA
 40
0.0
  9
$CHAMFERB
 40
0.0
  9
$SKPOLY
 70
     0
  9
$TDCREATE
 40
2451806.705543981
  9
$TDUPDATE
 40
2451806.705543981
  9
$TDINDWG
 40
0.0000000000
  9
$TDUSRTIMER
 40
0.0000000000
  9
$USRTIMER
 70
     1
  9
$ANGBASE
 50
0.0
  9
$ANGDIR
 70
     0
  9
$PDMODE
 70
     0
  9
$PDSIZE
 40
0.0
  9
$PLINEWID
 40
0.0
  9
$COORDS
 70
     0
  9
$SPLFRAME
 70
     0
  9
$SPLINETYPE
 70
     6
  9
$SPLINESEGS
 70
     8
  9
$ATTDIA
 70
     0
  9
$ATTREQ
 70
     1
  9
$HANDLING
 70
     1
  9
$HANDSEED
  5
334
  9
$SURFTAB1
 70
     6
  9
$SURFTAB2
 70
     6
  9
$SURFTYPE
 70
     6
  9
$SURFU
 70
     6
  9
$SURFV
 70
     6
  9
$UCSNAME
  2

  9
$UCSORG
 10
0.0
 20
0.0
 30
0.0
  9
$UCSXDIR
 10
1.0
 20
0.0
 30
0.0
  9
$UCSYDIR
 10
0.0
 20
1.0
 30
0.0
  9
$PUCSNAME
  2

  9
$PUCSORG
 10
0.0
 20
0.0
 30
0.0
  9
$PUCSXDIR
 10
1.0
 20
0.0
 30
0.0
  9
$PUCSYDIR
 10
0.0
 20
1.0
 30
0.0
  9
$USERI1
 70
     0
  9
$USERI2
 70
     0
  9
$USERI3
 70
     0
  9
$USERI4
 70
     0
  9
$USERI5
 70
     0
  9
$USERR1
 40
0.0
  9
$USERR2
 40
0.0
  9
$USERR3
 40
0.0
  9
$USERR4
 40
0.0
  9
$USERR5
 40
0.0
  9
$WORLDVIEW
 70
     1
  9
$SHADEDGE
 70
     3
  9
$SHADEDIF
 70
    70
  9
$TILEMODE
 70
     1
  9
$MAXACTVP
 70
    16
  9
$PINSBASE
 10
0.0
 20
0.0
 30
0.0
  9
$PLIMCHECK
 70
     0
  9
$PEXTMIN
 10
1.000000E+20
 20
1.000000E+20
 30
1.000000E+20
  9
$PEXTMAX
 10
-1.000000E+20
 20
-1.000000E+20
 30
-1.000000E+20
  9
$PLIMMIN
 10
0.0
 20
0.0
  9
$PLIMMAX
 10
12.0
 20
9.0
  9
$UNITMODE
 70
     0
  9
$VISRETAIN
 70
     0
  9
$PLINEGEN
 70
     1
  9
$PSLTSCALE
 70
     0
  9
$TREEDEPTH
 70
  3020
  9
$DWGCODEPAGE
  3
dos850
  0
ENDSEC
  0
SECTION
  2
TABLES
  0
TABLE
  2
VPORT
 70
     1
  0
VPORT
  2
*ACTIVE
 70
     0
 10
0.0
 20
0.0
 11
1.0
 21
1.0
 12
0.0
 22
0.0
 13
0.0
 23
0.0
 14
1.0
 24
1.0
 15
0.0
 25
0.0
 16
0.0
 26
0.0
 36
1.0
 17
0.0
 27
0.0
 37
0.0
 40
8.0
 41
0.688564
 42
50.0
 43
0.0
 44
0.0
 50
0.0
 51
0.0
 71
     0
 72
   100
 73
     1
 74
     1
 75
     0
 76
     0
 77
     0
 78
     0
  0
ENDTAB
  0
TABLE
  2
LTYPE
 70
    11
  0
LTYPE
  2
CONTINUOUS
 70
     0
  3
Solid line
 72
    65
 73
     0
 40
0.0
  0
LTYPE
  2
MCDASH01
 70
     0
  3

 72
    65
 73
     2
 40
0.083328
 49
0.041656
 49
-0.041672
  0
LTYPE
  2
MCDASH02
 70
     0
  3

 72
    65
 73
     2
 40
0.138885
 49
0.097214
 49
-0.041672
  0
LTYPE
  2
MCDASH03
 70
     0
  3

 72
    65
 73
     2
 40
0.25
 49
0.208328
 49
-0.041672
  0
LTYPE
  2
MCDASH04
 70
     0
  3

 72
    65
 73
     2
 40
0.305542
 49
0.263885
 49
-0.041656
  0
LTYPE
  2
MCDASH05
 70
     0
  3

 72
    65
 73
     2
 40
0.041656
 49
0.013885
 49
-0.027771
  0
LTYPE
  2
MCDASH06
 70
     0
  3

 72
    65
 73
     4
 40
0.208328
 49
0.125
 49
-0.041656
 49
0.013885
 49
-0.027786
  0
LTYPE
  2
MCDASH07
 70
     0
  3

 72
    65
 73
     6
 40
0.375
 49
0.125
 49
-0.041656
 49
0.125
 49
-0.041672
 49
0.013885
 49
-0.027786
  0
LTYPE
  2
MCDASH08
 70
     0
  3

 72
    65
 73
     6
 40
0.25
 49
0.125
 49
-0.041656
 49
0.013885
 49
-0.027786
 49
0.013885
 49
-0.027786
  0
LTYPE
  2
MCDASH09
 70
     0
  3

 72
    65
 73
     4
 40
1.0
 49
0.75
 49
-0.055557
 49
0.138885
 49
-0.055557
  0
LTYPE
  2
MCDASH10
 70
     0
  3

 72
    65
 73
     6
 40
1.1875
 49
0.75
 49
-0.055557
 49
0.138885
 49
-0.055557
 49
0.125
 49
-0.0625
  0
ENDTAB
  0
TABLE
  2
LAYER
 70
     2
  0
LAYER
  2
0
 70
     0
 62
     7
  6
CONTINUOUS
  0
LAYER
  2
LAYER-1
 70
    64
 62
     7
  6
CONTINUOUS
  0
ENDTAB
  0
TABLE
  2
STYLE
 70
     1
  0
STYLE
  2
STANDARD
 70
     0
 40
0.0
 41
1.0
 50
0.0
 71
     0
 42
0.0
  3
txt
  4

  0
ENDTAB
  0
TABLE
  2
VIEW
 70
     0
  0
ENDTAB
  0
TABLE
  2
UCS
 70
     0
  0
ENDTAB
  0
TABLE
  2
APPID
 70
     1
  0
APPID
  2
ACAD
 70
     0
  0
ENDTAB
  0
TABLE
  2
DIMSTYLE
 70
     1
  0
DIMSTYLE
  2
STANDARD
 70
     0
  3

  4

  5

  6

  7

 40
1.0
 41
0.18
 42
0.0625
 43
0.38
 44
0.18
 45
0.0
 46
0.0
 47
0.0
 48
0.0
140
0.18
141
0.09
142
0.0
143
25.4
144
1.0
145
0.0
146
1.0
147
0.09
 71
     0
 72
     0
 73
     1
 74
     1
 75
     0
 76
     0
 77
     0
 78
     0
170
     0
171
     2
172
     0
173
     0
174
     0
175
     0
176
     0
177
     0
178
     0
  0
ENDTAB
  0
ENDSEC
  0
SECTION
  2
BLOCKS
  0
ENDSEC
  0
SECTION
  2
ENTITIES
  0
POLYLINE
  8
LAYER-1
  6
CONTINUOUS
 62
     7
  5
2B
 66
     1
 10
0.0
 20
0.0
 30
0.0
 70
     5
 40
0.028
 41
0.028
 75
     5
  0
VERTEX
  8
LAYER-1
  6
CONTINUOUS
 62
     7
  5
2C
 10
2.885
 20
-2.28
 30
0.0
  0
VERTEX
  8
LAYER-1
  6
CONTINUOUS
 62
     7
  5
2D
 10
2.884849
 20
-2.273865
 30
0.0
  0
VERTEX
  8
LAYER-1
  6
CONTINUOUS
 62
     7
  5
2E
 10
2.884398
 20
-2.267746
 30
0.0
  0
VERTEX
  8
LAYER-1
  6
CONTINUOUS
 62
     7
  5
2F
 10
2.883647
 20
-2.261655
 30
0.0
  0
VERTEX
  8
LAYER-1
  6
CONTINUOUS
 62
     7
  5
30
 10
2.882598
 20
-2.25561
 30
0.0
  0
VERTEX
  8
LAYER-1
  6
CONTINUOUS
 62
     7
  5
31
 10
2.881253
 20
-2.249622
 30
0.0
  0
VERTEX
  8
LAYER-1
  6
CONTINUOUS
 62
     7
  5
32
 10
2.879617
 20
-2.243709
 30
0.0
  0
VERTEX
  8
LAYER-1
  6
CONTINUOUS
 62
     7
  5
33
 10
2.877691
 20
-2.237881
 30
0.0
  0
VERTEX
  8
LAYER-1
  6
CONTINUOUS
 62
     7
  5
34
 10
2.875483
 20
-2.232157
 30
0.0
  0
VERTEX
  8
LAYER-1
  6
CONTINUOUS
 62
     7
  5
35
 10
2.872996
 20
-2.226547
 30
0.0
  0
VERTEX
  8
LAYER-1
  6
CONTINUOUS
 62
     7
  5
36
 10
2.870237
 20
-2.221067
 30
0.0
  0
VERTEX
  8
LAYER-1
  6
CONTINUOUS
 62
     7
  5
37
 10
2.867212
 20
-2.215727
 30
0.0
  0
VERTEX
  8
LAYER-1
  6
CONTINUOUS
 62
     7
  5
38
 10
2.863929
 20
-2.210544
 30
0.0
  0
VERTEX
  8
LAYER-1
  6
CONTINUOUS
 62
     7
  5
39
 10
2.860395
 20
-2.205527
 30
0.0
  0
VERTEX
  8
LAYER-1
  6
CONTINUOUS
 62
     7
  5
3A
 10
2.856619
 20
-2.20069
 30
0.0
  0
VERTEX
  8
LAYER-1
  6
CONTINUOUS
 62
     7
  5
3B
 10
2.85261
 20
-2.196044
 30
0.0
  0
VERTEX
  8
LAYER-1
  6
CONTINUOUS
 62
     7
  5
3C
 10
2.848378
 20
-2.1916
 30
0.0
  0
VERTEX
  8
LAYER-1
  6
CONTINUOUS
 62
     7
  5
3D
 10
2.843932
 20
-2.187368
 30
0.0
  0
VERTEX
  8
LAYER-1
  6
CONTINUOUS
 62
     7
  5
3E
 10
2.839286
 20
-2.183361
 30
0.0
  0
VERTEX
  8
LAYER-1
  6
CONTINUOUS
 62
     7
  5
3F
 10
2.834447
 20
-2.179586
 30
0.0
  0
VERTEX
  8
LAYER-1
  6
CONTINUOUS
 62
     7
  5
40
 10
2.829431
 20
-2.176054
 30
0.0
  0
VERTEX
  8
LAYER-1
  6
CONTINUOUS
 62
     7
  5
41
 10
2.824245
 20
-2.172772
 30
0.0
  0
VERTEX
  8
LAYER-1
  6
CONTINUOUS
 62
     7
  5
42
 10
2.818906
 20
-2.169749
 30
0.0
  0
VERTEX
  8
LAYER-1
  6
CONTINUOUS
 62
     7
  5
43
 10
2.813424
 20
-2.16699
 30
0.0
  0
VERTEX
  8
LAYER-1
  6
CONTINUOUS
 62
     7
  5
44
 10
2.807814
 20
-2.164505
 30
0.0
  0
VERTEX
  8
LAYER-1
  6
CONTINUOUS
 62
     7
  5
45
 10
2.802088
 20
-2.162298
 30
0.0
  0
VERTEX
  8
LAYER-1
  6
CONTINUOUS
 62
     7
  5
46
 10
2.796262
 20
-2.160375
 30
0.0
  0
VERTEX
  8
LAYER-1
  6
CONTINUOUS
 62
     7
  5
47
 10
2.790347
 20
-2.158739
 30
0.0
  0
VERTEX
  8
LAYER-1
  6
CONTINUOUS
 62
     7
  5
48
 10
2.78436
 20
-2.157396
 30
0.0
  0
VERTEX
  8
LAYER-1
  6
CONTINUOUS
 62
     7
  5
49
 10
2.778313
 20
-2.156349
 30
0.0
  0
VERTEX
  8
LAYER-1
  6
CONTINUOUS
 62
     7
  5
4A
 10
2.772224
 20
-2.155599
 30
0.0
  0
VERTEX
  8
LAYER-1
  6
CONTINUOUS
 62
     7
  5
4B
 10
2.766103
 20
-2.155149
 30
0.0
  0
VERTEX
  8
LAYER-1
  6
CONTINUOUS
 62
     7
  5
4C
 10
2.760031
 20
-2.155
 30
0.0
  0
VERTEX
  8
LAYER-1
  6
CONTINUOUS
 62
     7
  5
4D
 10
2.753897
 20
-2.155149
 30
0.0
  0
VERTEX
  8
LAYER-1
  6
CONTINUOUS
 62
     7
  5
4E
 10
2.747776
 20
-2.155599
 30
0.0
  0
VERTEX
  8
LAYER-1
  6
CONTINUOUS
 62
     7
  5
4F
 10
2.741687
 20
-2.156349
 30
0.0
  0
VERTEX
  8
LAYER-1
  6
CONTINUOUS
 62
     7
  5
50
 10
2.73564
 20
-2.157396
 30
0.0
  0
VERTEX
  8
LAYER-1
  6
CONTINUOUS
 62
     7
  5
51
 10
2.729653
 20
-2.158739
 30
0.0
  0
VERTEX
  8
LAYER-1
  6
CONTINUOUS
 62
     7
  5
52
 10
2.723738
 20
-2.160375
 30
0.0
  0
VERTEX
  8
LAYER-1
  6
CONTINUOUS
 62
     7
  5
53
 10
2.717912
 20
-2.162298
 30
0.0
  0
VERTEX
  8
LAYER-1
  6
CONTINUOUS
 62
     7
  5
54
 10
2.712185
 20
-2.164505
 30
0.0
  0
VERTEX
  8
LAYER-1
  6
CONTINUOUS
 62
     7
  5
55
 10
2.706576
 20
-2.16699
 30
0.0
  0
VERTEX
  8
LAYER-1
  6
CONTINUOUS
 62
     7
  5
56
 10
2.701094
 20
-2.169749
 30
0.0
  0
VERTEX
  8
LAYER-1
  6
CONTINUOUS
 62
     7
  5
57
 10
2.695755
 20
-2.172772
 30
0.0
  0
VERTEX
  8
LAYER-1
  6
CONTINUOUS
 62
     7
  5
58
 10
2.690569
 20
-2.176054
 30
0.0
  0
VERTEX
  8
LAYER-1
  6
CONTINUOUS
 62
     7
  5
59
 10
2.685553
 20
-2.179586
 30
0.0
  0
VERTEX
  8
LAYER-1
  6
CONTINUOUS
 62
     7
  5
5A
 10
2.680714
 20
-2.183361
 30
0.0
  0
VERTEX
  8
LAYER-1
  6
CONTINUOUS
 62
     7
  5
5B
 10
2.676068
 20
-2.187368
 30
0.0
  0
VERTEX
  8
LAYER-1
  6
CONTINUOUS
 62
     7
  5
5C
 10
2.671622
 20
-2.1916
 30
0.0
  0
VERTEX
  8
LAYER-1
  6
CONTINUOUS
 62
     7
  5
5D
 10
2.66739
 20
-2.196044
 30
0.0
  0
VERTEX
  8
LAYER-1
  6
CONTINUOUS
 62
     7
  5
5E
 10
2.663381
 20
-2.20069
 30
0.0
  0
VERTEX
  8
LAYER-1
  6
CONTINUOUS
 62
     7
  5
5F
 10
2.659605
 20
-2.205527
 30
0.0
  0
VERTEX
  8
LAYER-1
  6
CONTINUOUS
 62
     7
  5
60
 10
2.656071
 20
-2.210544
 30
0.0
  0
VERTEX
  8
LAYER-1
  6
CONTINUOUS
 62
     7
  5
61
 10
2.652788
 20
-2.215727
 30
0.0
  0
VERTEX
  8
LAYER-1
  6
CONTINUOUS
 62
     7
  5
62
 10
2.649763
 20
-2.221067
 30
0.0
  0
VERTEX
  8
LAYER-1
  6
CONTINUOUS
 62
     7
  5
63
 10
2.647004
 20
-2.226547
 30
0.0
  0
VERTEX
  8
LAYER-1
  6
CONTINUOUS
 62
     7
  5
64
 10
2.644517
 20
-2.232157
 30
0.0
  0
VERTEX
  8
LAYER-1
  6
CONTINUOUS
 62
     7
  5
65
 10
2.642308
 20
-2.237881
 30
0.0
  0
VERTEX
  8
LAYER-1
  6
CONTINUOUS
 62
     7
  5
66
 10
2.640383
 20
-2.243709
 30
0.0
  0
VERTEX
  8
LAYER-1
  6
CONTINUOUS
 62
     7
  5
67
 10
2.638747
 20
-2.249622
 30
0.0
  0
VERTEX
  8
LAYER-1
  6
CONTINUOUS
 62
     7
  5
68
 10
2.637402
 20
-2.25561
 30
0.0
  0
VERTEX
  8
LAYER-1
  6
CONTINUOUS
 62
     7
  5
69
 10
2.636353
 20
-2.261655
 30
0.0
  0
VERTEX
  8
LAYER-1
  6
CONTINUOUS
 62
     7
  5
6A
 10
2.635602
 20
-2.267746
 30
0.0
  0
VERTEX
  8
LAYER-1
  6
CONTINUOUS
 62
     7
  5
6B
 10
2.635151
 20
-2.273865
 30
0.0
  0
VERTEX
  8
LAYER-1
  6
CONTINUOUS
 62
     7
  5
6C
 10
2.635
 20
-2.28
 30
0.0
  0
VERTEX
  8
LAYER-1
  6
CONTINUOUS
 62
     7
  5
6D
 10
2.635151
 20
-2.286135
 30
0.0
  0
VERTEX
  8
LAYER-1
  6
CONTINUOUS
 62
     7
  5
6E
 10
2.635602
 20
-2.292254
 30
0.0
  0
VERTEX
  8
LAYER-1
  6
CONTINUOUS
 62
     7
  5
6F
 10
2.636353
 20
-2.298345
 30
0.0
  0
VERTEX
  8
LAYER-1
  6
CONTINUOUS
 62
     7
  5
70
 10
2.637402
 20
-2.30439
 30
0.0
  0
VERTEX
  8
LAYER-1
  6
CONTINUOUS
 62
     7
  5
71
 10
2.638747
 20
-2.310378
 30
0.0
  0
VERTEX
  8
LAYER-1
  6
CONTINUOUS
 62
     7
  5
72
 10
2.640383
 20
-2.316291
 30
0.0
  0
VERTEX
  8
LAYER-1
  6
CONTINUOUS
 62
     7
  5
73
 10
2.642308
 20
-2.322119
 30
0.0
  0
VERTEX
  8
LAYER-1
  6
CONTINUOUS
 62
     7
  5
74
 10
2.644517
 20
-2.327843
 30
0.0
  0
VERTEX
  8
LAYER-1
  6
CONTINUOUS
 62
     7
  5
75
 10
2.647004
 20
-2.333453
 30
0.0
  0
VERTEX
  8
LAYER-1
  6
CONTINUOUS
 62
     7
  5
76
 10
2.649763
 20
-2.338933
 30
0.0
  0
VERTEX
  8
LAYER-1
  6
CONTINUOUS
 62
     7
  5
77
 10
2.652788
 20
-2.344273
 30
0.0
  0
VERTEX
  8
LAYER-1
  6
CONTINUOUS
 62
     7
  5
78
 10
2.656071
 20
-2.349456
 30
0.0
  0
VERTEX
  8
LAYER-1
  6
CONTINUOUS
 62
     7
  5
79
 10
2.659605
 20
-2.354473
 30
0.0
  0
VERTEX
  8
LAYER-1
  6
CONTINUOUS
 62
     7
  5
7A
 10
2.663381
 20
-2.35931
 30
0.0
  0
VERTEX
  8
LAYER-1
  6
CONTINUOUS
 62
     7
  5
7B
 10
2.66739
 20
-2.363956
 30
0.0
  0
VERTEX
  8
LAYER-1
  6
CONTINUOUS
 62
     7
  5
7C
 10
2.671622
 20
-2.3684
 30
0.0
  0
VERTEX
  8
LAYER-1
  6
CONTINUOUS
 62
     7
  5
7D
 10
2.676068
 20
-2.372632
 30
0.0
  0
VERTEX
  8
LAYER-1
  6
CONTINUOUS
 62
     7
  5
7E
 10
2.680714
 20
-2.376639
 30
0.0
  0
VERTEX
  8
LAYER-1
  6
CONTINUOUS
 62
     7
  5
7F
 10
2.685553
 20
-2.380414
 30
0.0
  0
VERTEX
  8
LAYER-1
  6
CONTINUOUS
 62
     7
  5
80
 10
2.690569
 20
-2.383946
 30
0.0
  0
VERTEX
  8
LAYER-1
  6
CONTINUOUS
 62
     7
  5
81
 10
2.695755
 20
-2.387228
 30
0.0
  0
VERTEX
  8
LAYER-1
  6
CONTINUOUS
 62
     7
  5
82
 10
2.701094
 20
-2.390252
 30
0.0
  0
VERTEX
  8
LAYER-1
  6
CONTINUOUS
 62
     7
  5
83
 10
2.706576
 20
-2.39301
 30
0.0
  0
VERTEX
  8
LAYER-1
  6
CONTINUOUS
 62
     7
  5
84
 10
2.712185
 20
-2.395495
 30
0.0
  0
VERTEX
  8
LAYER-1
  6
CONTINUOUS
 62
     7
  5
85
 10
2.717912
 20
-2.397702
 30
0.0
  0
VERTEX
  8
LAYER-1
  6
CONTINUOUS
 62
     7
  5
86
 10
2.723738
 20
-2.399626
 30
0.0
  0
VERTEX
  8
LAYER-1
  6
CONTINUOUS
 62
     7
  5
87
 10
2.729653
 20
-2.401261
 30
0.0
  0
VERTEX
  8
LAYER-1
  6
CONTINUOUS
 62
     7
  5
88
 10
2.73564
 20
-2.402604
 30
0.0
  0
VERTEX
  8
LAYER-1
  6
CONTINUOUS
 62
     7
  5
89
 10
2.741687
 20
-2.403652
 30
0.0
  0
VERTEX
  8
LAYER-1
  6
CONTINUOUS
 62
     7
  5
8A
 10
2.747776
 20
-2.404401
 30
0.0
  0
VERTEX
  8
LAYER-1
  6
CONTINUOUS
 62
     7
  5
8B
 10
2.753897
 20
-2.404851
 30
0.0
  0
VERTEX
  8
LAYER-1
  6
CONTINUOUS
 62
     7
  5
8C
 10
2.760031
 20
-2.405
 30
0.0
  0
VERTEX
  8
LAYER-1
  6
CONTINUOUS
 62
     7
  5
8D
 10
2.766103
 20
-2.404851
 30
0.0
  0
VERTEX
  8
LAYER-1
  6
CONTINUOUS
 62
     7
  5
8E
 10
2.772224
 20
-2.404401
 30
0.0
  0
VERTEX
  8
LAYER-1
  6
CONTINUOUS
 62
     7
  5
8F
 10
2.778313
 20
-2.403652
 30
0.0
  0
VERTEX
  8
LAYER-1
  6
CONTINUOUS
 62
     7
  5
90
 10
2.78436
 20
-2.402604
 30
0.0
  0
VERTEX
  8
LAYER-1
  6
CONTINUOUS
 62
     7
  5
91
 10
2.790347
 20
-2.401261
 30
0.0
  0
VERTEX
  8
LAYER-1
  6
CONTINUOUS
 62
     7
  5
92
 10
2.796262
 20
-2.399626
 30
0.0
  0
VERTEX
  8
LAYER-1
  6
CONTINUOUS
 62
     7
  5
93
 10
2.802088
 20
-2.397702
 30
0.0
  0
VERTEX
  8
LAYER-1
  6
CONTINUOUS
 62
     7
  5
94
 10
2.807814
 20
-2.395495
 30
0.0
  0
VERTEX
  8
LAYER-1
  6
CONTINUOUS
 62
     7
  5
95
 10
2.813424
 20
-2.39301
 30
0.0
  0
VERTEX
  8
LAYER-1
  6
CONTINUOUS
 62
     7
  5
96
 10
2.818906
 20
-2.390252
 30
0.0
  0
VERTEX
  8
LAYER-1
  6
CONTINUOUS
 62
     7
  5
97
 10
2.824245
 20
-2.387228
 30
0.0
  0
VERTEX
  8
LAYER-1
  6
CONTINUOUS
 62
     7
  5
98
 10
2.829431
 20
-2.383946
 30
0.0
  0
VERTEX
  8
LAYER-1
  6
CONTINUOUS
 62
     7
  5
99
 10
2.834447
 20
-2.380414
 30
0.0
  0
VERTEX
  8
LAYER-1
  6
CONTINUOUS
 62
     7
  5
9A
 10
2.839286
 20
-2.376639
 30
0.0
  0
VERTEX
  8
LAYER-1
  6
CONTINUOUS
 62
     7
  5
9B
 10
2.843932
 20
-2.372632
 30
0.0
  0
VERTEX
  8
LAYER-1
  6
CONTINUOUS
 62
     7
  5
9C
 10
2.848378
 20
-2.3684
 30
0.0
  0
VERTEX
  8
LAYER-1
  6
CONTINUOUS
 62
     7
  5
9D
 10
2.85261
 20
-2.363956
 30
0.0
  0
VERTEX
  8
LAYER-1
  6
CONTINUOUS
 62
     7
  5
9E
 10
2.856619
 20
-2.35931
 30
0.0
  0
VERTEX
  8
LAYER-1
  6
CONTINUOUS
 62
     7
  5
9F
 10
2.860395
 20
-2.354473
 30
0.0
  0
VERTEX
  8
LAYER-1
  6
CONTINUOUS
 62
     7
  5
A0
 10
2.863929
 20
-2.349456
 30
0.0
  0
VERTEX
  8
LAYER-1
  6
CONTINUOUS
 62
     7
  5
A1
 10
2.867212
 20
-2.344273
 30
0.0
  0
VERTEX
  8
LAYER-1
  6
CONTINUOUS
 62
     7
  5
A2
 10
2.870237
 20
-2.338933
 30
0.0
  0
VERTEX
  8
LAYER-1
  6
CONTINUOUS
 62
     7
  5
A3
 10
2.872996
 20
-2.333453
 30
0.0
  0
VERTEX
  8
LAYER-1
  6
CONTINUOUS
 62
     7
  5
A4
 10
2.875483
 20
-2.327843
 30
0.0
  0
VERTEX
  8
LAYER-1
  6
CONTINUOUS
 62
     7
  5
A5
 10
2.877691
 20
-2.322119
 30
0.0
  0
VERTEX
  8
LAYER-1
  6
CONTINUOUS
 62
     7
  5
A6
 10
2.879617
 20
-2.316291
 30
0.0
  0
VERTEX
  8
LAYER-1
  6
CONTINUOUS
 62
     7
  5
A7
 10
2.881253
 20
-2.310378
 30
0.0
  0
VERTEX
  8
LAYER-1
  6
CONTINUOUS
 62
     7
  5
A8
 10
2.882598
 20
-2.30439
 30
0.0
  0
VERTEX
  8
LAYER-1
  6
CONTINUOUS
 62
     7
  5
A9
 10
2.883647
 20
-2.298345
 30
0.0
  0
VERTEX
  8
LAYER-1
  6
CONTINUOUS
 62
     7
  5
AA
 10
2.884398
 20
-2.292254
 30
0.0
  0
VERTEX
  8
LAYER-1
  6
CONTINUOUS
 62
     7
  5
AB
 10
2.884849
 20
-2.286135
 30
0.0
  0
SEQEND
  8
LAYER-1
  6
CONTINUOUS
  5
AC
  0
POLYLINE
  8
LAYER-1
  6
CONTINUOUS
 62
     7
  5
AD
 66
     1
 10
0.0
 20
0.0
 30
0.0
 40
0.028
 41
0.028
  0
VERTEX
  8
LAYER-1
  6
CONTINUOUS
 62
     7
  5
AE
 10
2.935
 20
-2.605
 30
0.0
  0
VERTEX
  8
LAYER-1
  6
CONTINUOUS
 62
     7
  5
AF
 10
1.76
 20
-2.605
 30
0.0
  0
SEQEND
  8
LAYER-1
  6
CONTINUOUS
  5
B0
  0
POLYLINE
  8
LAYER-1
  6
CONTINUOUS
 62
     7
  5
B1
 66
     1
 10
0.0
 20
0.0
 30
0.0
 40
0.028
 41
0.028
  0
VERTEX
  8
LAYER-1
  6
CONTINUOUS
 62
     7
  5
B2
 10
2.935
 20
-1.505
 30
0.0
  0
VERTEX
  8
LAYER-1
  6
CONTINUOUS
 62
     7
  5
B3
 10
2.935
 20
-2.605
 30
0.0
  0
SEQEND
  8
LAYER-1
  6
CONTINUOUS
  5
B4
  0
POLYLINE
  8
LAYER-1
  6
CONTINUOUS
 62
     7
  5
B5
 66
     1
 10
0.0
 20
0.0
 30
0.0
 70
     5
 40
0.028
 41
0.028
 75
     5
  0
VERTEX
  8
LAYER-1
  6
CONTINUOUS
 62
     7
  5
B6
 10
2.435
 20
0.025
 30
0.0
  0
VERTEX
  8
LAYER-1
  6
CONTINUOUS
 62
     7
  5
B7
 10
2.434849
 20
0.031135
 30
0.0
  0
VERTEX
  8
LAYER-1
  6
CONTINUOUS
 62
     7
  5
B8
 10
2.434398
 20
0.037254
 30
0.0
  0
VERTEX
  8
LAYER-1
  6
CONTINUOUS
 62
     7
  5
B9
 10
2.433647
 20
0.043345
 30
0.0
  0
VERTEX
  8
LAYER-1
  6
CONTINUOUS
 62
     7
  5
BA
 10
2.432598
 20
0.04939
 30
0.0
  0
VERTEX
  8
LAYER-1
  6
CONTINUOUS
 62
     7
  5
BB
 10
2.431253
 20
0.055378
 30
0.0
  0
VERTEX
  8
LAYER-1
  6
CONTINUOUS
 62
     7
  5
BC
 10
2.429617
 20
0.061291
 30
0.0
  0
VERTEX
  8
LAYER-1
  6
CONTINUOUS
 62
     7
  5
BD
 10
2.427691
 20
0.067118
 30
0.0
  0
VERTEX
  8
LAYER-1
  6
CONTINUOUS
 62
     7
  5
BE
 10
2.425483
 20
0.072843
 30
0.0
  0
VERTEX
  8
LAYER-1
  6
CONTINUOUS
 62
     7
  5
BF
 10
2.422996
 20
0.078453
 30
0.0
  0
VERTEX
  8
LAYER-1
  6
CONTINUOUS
 62
     7
  5
C0
 10
2.420237
 20
0.083933
 30
0.0
  0
VERTEX
  8
LAYER-1
  6
CONTINUOUS
 62
     7
  5
C1
 10
2.417212
 20
0.089273
 30
0.0
  0
VERTEX
  8
LAYER-1
  6
CONTINUOUS
 62
     7
  5
C2
 10
2.413929
 20
0.094456
 30
0.0
  0
VERTEX
  8
LAYER-1
  6
CONTINUOUS
 62
     7
  5
C3
 10
2.410395
 20
0.099473
 30
0.0
  0
VERTEX
  8
LAYER-1
  6
CONTINUOUS
 62
     7
  5
C4
 10
2.406619
 20
0.10431
 30
0.0
  0
VERTEX
  8
LAYER-1
  6
CONTINUOUS
 62
     7
  5
C5
 10
2.40261
 20
0.108956
 30
0.0
  0
VERTEX
  8
LAYER-1
  6
CONTINUOUS
 62
     7
  5
C6
 10
2.398378
 20
0.1134
 30
0.0
  0
VERTEX
  8
LAYER-1
  6
CONTINUOUS
 62
     7
  5
C7
 10
2.393932
 20
0.117632
 30
0.0
  0
VERTEX
  8
LAYER-1
  6
CONTINUOUS
 62
     7
  5
C8
 10
2.389286
 20
0.121639
 30
0.0
  0
VERTEX
  8
LAYER-1
  6
CONTINUOUS
 62
     7
  5
C9
 10
2.384447
 20
0.125414
 30
0.0
  0
VERTEX
  8
LAYER-1
  6
CONTINUOUS
 62
     7
  5
CA
 10
2.37943
 20
0.128946
 30
0.0
  0
VERTEX
  8
LAYER-1
  6
CONTINUOUS
 62
     7
  5
CB
 10
2.374245
 20
0.132228
 30
0.0
  0
VERTEX
  8
LAYER-1
  6
CONTINUOUS
 62
     7
  5
CC
 10
2.368906
 20
0.135251
 30
0.0
  0
VERTEX
  8
LAYER-1
  6
CONTINUOUS
 62
     7
  5
CD
 10
2.363424
 20
0.13801
 30
0.0
  0
VERTEX
  8
LAYER-1
  6
CONTINUOUS
 62
     7
  5
CE
 10
2.357814
 20
0.140495
 30
0.0
  0
VERTEX
  8
LAYER-1
  6
CONTINUOUS
 62
     7
  5
CF
 10
2.352088
 20
0.142702
 30
0.0
  0
VERTEX
  8
LAYER-1
  6
CONTINUOUS
 62
     7
  5
D0
 10
2.346262
 20
0.144625
 30
0.0
  0
VERTEX
  8
LAYER-1
  6
CONTINUOUS
 62
     7
  5
D1
 10
2.340347
 20
0.146261
 30
0.0
  0
VERTEX
  8
LAYER-1
  6
CONTINUOUS
 62
     7
  5
D2
 10
2.33436
 20
0.147604
 30
0.0
  0
VERTEX
  8
LAYER-1
  6
CONTINUOUS
 62
     7
  5
D3
 10
2.328313
 20
0.148651
 30
0.0
  0
VERTEX
  8
LAYER-1
  6
CONTINUOUS
 62
     7
  5
D4
 10
2.322224
 20
0.149401
 30
0.0
  0
VERTEX
  8
LAYER-1
  6
CONTINUOUS
 62
     7
  5
D5
 10
2.316103
 20
0.149851
 30
0.0
  0
VERTEX
  8
LAYER-1
  6
CONTINUOUS
 62
     7
  5
D6
 10
2.31003
 20
0.15
 30
0.0
  0
VERTEX
  8
LAYER-1
  6
CONTINUOUS
 62
     7
  5
D7
 10
2.303897
 20
0.149851
 30
0.0
  0
VERTEX
  8
LAYER-1
  6
CONTINUOUS
 62
     7
  5
D8
 10
2.297776
 20
0.149401
 30
0.0
  0
VERTEX
  8
LAYER-1
  6
CONTINUOUS
 62
     7
  5
D9
 10
2.291687
 20
0.148651
 30
0.0
  0
VERTEX
  8
LAYER-1
  6
CONTINUOUS
 62
     7
  5
DA
 10
2.28564
 20
0.147604
 30
0.0
  0
VERTEX
  8
LAYER-1
  6
CONTINUOUS
 62
     7
  5
DB
 10
2.279653
 20
0.146261
 30
0.0
  0
VERTEX
  8
LAYER-1
  6
CONTINUOUS
 62
     7
  5
DC
 10
2.273738
 20
0.144625
 30
0.0
  0
VERTEX
  8
LAYER-1
  6
CONTINUOUS
 62
     7
  5
DD
 10
2.267912
 20
0.142702
 30
0.0
  0
VERTEX
  8
LAYER-1
  6
CONTINUOUS
 62
     7
  5
DE
 10
2.262186
 20
0.140495
 30
0.0
  0
VERTEX
  8
LAYER-1
  6
CONTINUOUS
 62
     7
  5
DF
 10
2.256576
 20
0.13801
 30
0.0
  0
VERTEX
  8
LAYER-1
  6
CONTINUOUS
 62
     7
  5
E0
 10
2.251094
 20
0.135251
 30
0.0
  0
VERTEX
  8
LAYER-1
  6
CONTINUOUS
 62
     7
  5
E1
 10
2.245755
 20
0.132228
 30
0.0
  0
VERTEX
  8
LAYER-1
  6
CONTINUOUS
 62
     7
  5
E2
 10
2.240569
 20
0.128946
 30
0.0
  0
VERTEX
  8
LAYER-1
  6
CONTINUOUS
 62
     7
  5
E3
 10
2.235553
 20
0.125414
 30
0.0
  0
VERTEX
  8
LAYER-1
  6
CONTINUOUS
 62
     7
  5
E4
 10
2.230714
 20
0.121639
 30
0.0
  0
VERTEX
  8
LAYER-1
  6
CONTINUOUS
 62
     7
  5
E5
 10
2.226068
 20
0.117632
 30
0.0
  0
VERTEX
  8
LAYER-1
  6
CONTINUOUS
 62
     7
  5
E6
 10
2.221622
 20
0.1134
 30
0.0
  0
VERTEX
  8
LAYER-1
  6
CONTINUOUS
 62
     7
  5
E7
 10
2.21739
 20
0.108956
 30
0.0
  0
VERTEX
  8
LAYER-1
  6
CONTINUOUS
 62
     7
  5
E8
 10
2.213381
 20
0.10431
 30
0.0
  0
VERTEX
  8
LAYER-1
  6
CONTINUOUS
 62
     7
  5
E9
 10
2.209605
 20
0.099473
 30
0.0
  0
VERTEX
  8
LAYER-1
  6
CONTINUOUS
 62
     7
  5
EA
 10
2.206071
 20
0.094456
 30
0.0
  0
VERTEX
  8
LAYER-1
  6
CONTINUOUS
 62
     7
  5
EB
 10
2.202788
 20
0.089273
 30
0.0
  0
VERTEX
  8
LAYER-1
  6
CONTINUOUS
 62
     7
  5
EC
 10
2.199763
 20
0.083933
 30
0.0
  0
VERTEX
  8
LAYER-1
  6
CONTINUOUS
 62
     7
  5
ED
 10
2.197004
 20
0.078453
 30
0.0
  0
VERTEX
  8
LAYER-1
  6
CONTINUOUS
 62
     7
  5
EE
 10
2.194517
 20
0.072843
 30
0.0
  0
VERTEX
  8
LAYER-1
  6
CONTINUOUS
 62
     7
  5
EF
 10
2.192309
 20
0.067118
 30
0.0
  0
VERTEX
  8
LAYER-1
  6
CONTINUOUS
 62
     7
  5
F0
 10
2.190383
 20
0.061291
 30
0.0
  0
VERTEX
  8
LAYER-1
  6
CONTINUOUS
 62
     7
  5
F1
 10
2.188747
 20
0.055378
 30
0.0
  0
VERTEX
  8
LAYER-1
  6
CONTINUOUS
 62
     7
  5
F2
 10
2.187402
 20
0.04939
 30
0.0
  0
VERTEX
  8
LAYER-1
  6
CONTINUOUS
 62
     7
  5
F3
 10
2.186353
 20
0.043345
 30
0.0
  0
VERTEX
  8
LAYER-1
  6
CONTINUOUS
 62
     7
  5
F4
 10
2.185602
 20
0.037254
 30
0.0
  0
VERTEX
  8
LAYER-1
  6
CONTINUOUS
 62
     7
  5
F5
 10
2.185151
 20
0.031135
 30
0.0
  0
VERTEX
  8
LAYER-1
  6
CONTINUOUS
 62
     7
  5
F6
 10
2.185
 20
0.025
 30
0.0
  0
VERTEX
  8
LAYER-1
  6
CONTINUOUS
 62
     7
  5
F7
 10
2.185151
 20
0.018865
 30
0.0
  0
VERTEX
  8
LAYER-1
  6
CONTINUOUS
 62
     7
  5
F8
 10
2.185602
 20
0.012746
 30
0.0
  0
VERTEX
  8
LAYER-1
  6
CONTINUOUS
 62
     7
  5
F9
 10
2.186353
 20
0.006655
 30
0.0
  0
VERTEX
  8
LAYER-1
  6
CONTINUOUS
 62
     7
  5
FA
 10
2.187402
 20
0.00061
 30
0.0
  0
VERTEX
  8
LAYER-1
  6
CONTINUOUS
 62
     7
  5
FB
 10
2.188747
 20
-0.005378
 30
0.0
  0
VERTEX
  8
LAYER-1
  6
CONTINUOUS
 62
     7
  5
FC
 10
2.190383
 20
-0.011291
 30
0.0
  0
VERTEX
  8
LAYER-1
  6
CONTINUOUS
 62
     7
  5
FD
 10
2.192309
 20
-0.017119
 30
0.0
  0
VERTEX
  8
LAYER-1
  6
CONTINUOUS
 62
     7
  5
FE
 10
2.194517
 20
-0.022843
 30
0.0
  0
VERTEX
  8
LAYER-1
  6
CONTINUOUS
 62
     7
  5
FF
 10
2.197004
 20
-0.028453
 30
0.0
  0
VERTEX
  8
LAYER-1
  6
CONTINUOUS
 62
     7
  5
100
 10
2.199763
 20
-0.033933
 30
0.0
  0
VERTEX
  8
LAYER-1
  6
CONTINUOUS
 62
     7
  5
101
 10
2.202788
 20
-0.039273
 30
0.0
  0
VERTEX
  8
LAYER-1
  6
CONTINUOUS
 62
     7
  5
102
 10
2.206071
 20
-0.044456
 30
0.0
  0
VERTEX
  8
LAYER-1
  6
CONTINUOUS
 62
     7
  5
103
 10
2.209605
 20
-0.049473
 30
0.0
  0
VERTEX
  8
LAYER-1
  6
CONTINUOUS
 62
     7
  5
104
 10
2.213381
 20
-0.05431
 30
0.0
  0
VERTEX
  8
LAYER-1
  6
CONTINUOUS
 62
     7
  5
105
 10
2.21739
 20
-0.058956
 30
0.0
  0
VERTEX
  8
LAYER-1
  6
CONTINUOUS
 62
     7
  5
106
 10
2.221622
 20
-0.0634
 30
0.0
  0
VERTEX
  8
LAYER-1
  6
CONTINUOUS
 62
     7
  5
107
 10
2.226068
 20
-0.067632
 30
0.0
  0
VERTEX
  8
LAYER-1
  6
CONTINUOUS
 62
     7
  5
108
 10
2.230714
 20
-0.071639
 30
0.0
  0
VERTEX
  8
LAYER-1
  6
CONTINUOUS
 62
     7
  5
109
 10
2.235553
 20
-0.075414
 30
0.0
  0
VERTEX
  8
LAYER-1
  6
CONTINUOUS
 62
     7
  5
10A
 10
2.240569
 20
-0.078946
 30
0.0
  0
VERTEX
  8
LAYER-1
  6
CONTINUOUS
 62
     7
  5
10B
 10
2.245755
 20
-0.082228
 30
0.0
  0
VERTEX
  8
LAYER-1
  6
CONTINUOUS
 62
     7
  5
10C
 10
2.251094
 20
-0.085251
 30
0.0
  0
VERTEX
  8
LAYER-1
  6
CONTINUOUS
 62
     7
  5
10D
 10
2.256576
 20
-0.08801
 30
0.0
  0
VERTEX
  8
LAYER-1
  6
CONTINUOUS
 62
     7
  5
10E
 10
2.262186
 20
-0.090495
 30
0.0
  0
VERTEX
  8
LAYER-1
  6
CONTINUOUS
 62
     7
  5
10F
 10
2.267912
 20
-0.092702
 30
0.0
  0
VERTEX
  8
LAYER-1
  6
CONTINUOUS
 62
     7
  5
110
 10
2.273738
 20
-0.094626
 30
0.0
  0
VERTEX
  8
LAYER-1
  6
CONTINUOUS
 62
     7
  5
111
 10
2.279653
 20
-0.096261
 30
0.0
  0
VERTEX
  8
LAYER-1
  6
CONTINUOUS
 62
     7
  5
112
 10
2.28564
 20
-0.097604
 30
0.0
  0
VERTEX
  8
LAYER-1
  6
CONTINUOUS
 62
     7
  5
113
 10
2.291687
 20
-0.098652
 30
0.0
  0
VERTEX
  8
LAYER-1
  6
CONTINUOUS
 62
     7
  5
114
 10
2.297776
 20
-0.099401
 30
0.0
  0
VERTEX
  8
LAYER-1
  6
CONTINUOUS
 62
     7
  5
115
 10
2.303897
 20
-0.099851
 30
0.0
  0
VERTEX
  8
LAYER-1
  6
CONTINUOUS
 62
     7
  5
116
 10
2.31003
 20
-0.1
 30
0.0
  0
VERTEX
  8
LAYER-1
  6
CONTINUOUS
 62
     7
  5
117
 10
2.316103
 20
-0.099851
 30
0.0
  0
VERTEX
  8
LAYER-1
  6
CONTINUOUS
 62
     7
  5
118
 10
2.322224
 20
-0.099401
 30
0.0
  0
VERTEX
  8
LAYER-1
  6
CONTINUOUS
 62
     7
  5
119
 10
2.328313
 20
-0.098652
 30
0.0
  0
VERTEX
  8
LAYER-1
  6
CONTINUOUS
 62
     7
  5
11A
 10
2.33436
 20
-0.097604
 30
0.0
  0
VERTEX
  8
LAYER-1
  6
CONTINUOUS
 62
     7
  5
11B
 10
2.340347
 20
-0.096261
 30
0.0
  0
VERTEX
  8
LAYER-1
  6
CONTINUOUS
 62
     7
  5
11C
 10
2.346262
 20
-0.094626
 30
0.0
  0
VERTEX
  8
LAYER-1
  6
CONTINUOUS
 62
     7
  5
11D
 10
2.352088
 20
-0.092702
 30
0.0
  0
VERTEX
  8
LAYER-1
  6
CONTINUOUS
 62
     7
  5
11E
 10
2.357814
 20
-0.090495
 30
0.0
  0
VERTEX
  8
LAYER-1
  6
CONTINUOUS
 62
     7
  5
11F
 10
2.363424
 20
-0.08801
 30
0.0
  0
VERTEX
  8
LAYER-1
  6
CONTINUOUS
 62
     7
  5
120
 10
2.368906
 20
-0.085251
 30
0.0
  0
VERTEX
  8
LAYER-1
  6
CONTINUOUS
 62
     7
  5
121
 10
2.374245
 20
-0.082228
 30
0.0
  0
VERTEX
  8
LAYER-1
  6
CONTINUOUS
 62
     7
  5
122
 10
2.37943
 20
-0.078946
 30
0.0
  0
VERTEX
  8
LAYER-1
  6
CONTINUOUS
 62
     7
  5
123
 10
2.384447
 20
-0.075414
 30
0.0
  0
VERTEX
  8
LAYER-1
  6
CONTINUOUS
 62
     7
  5
124
 10
2.389286
 20
-0.071639
 30
0.0
  0
VERTEX
  8
LAYER-1
  6
CONTINUOUS
 62
     7
  5
125
 10
2.393932
 20
-0.067632
 30
0.0
  0
VERTEX
  8
LAYER-1
  6
CONTINUOUS
 62
     7
  5
126
 10
2.398378
 20
-0.0634
 30
0.0
  0
VERTEX
  8
LAYER-1
  6
CONTINUOUS
 62
     7
  5
127
 10
2.40261
 20
-0.058956
 30
0.0
  0
VERTEX
  8
LAYER-1
  6
CONTINUOUS
 62
     7
  5
128
 10
2.406619
 20
-0.05431
 30
0.0
  0
VERTEX
  8
LAYER-1
  6
CONTINUOUS
 62
     7
  5
129
 10
2.410395
 20
-0.049473
 30
0.0
  0
VERTEX
  8
LAYER-1
  6
CONTINUOUS
 62
     7
  5
12A
 10
2.413929
 20
-0.044456
 30
0.0
  0
VERTEX
  8
LAYER-1
  6
CONTINUOUS
 62
     7
  5
12B
 10
2.417212
 20
-0.039273
 30
0.0
  0
VERTEX
  8
LAYER-1
  6
CONTINUOUS
 62
     7
  5
12C
 10
2.420237
 20
-0.033933
 30
0.0
  0
VERTEX
  8
LAYER-1
  6
CONTINUOUS
 62
     7
  5
12D
 10
2.422996
 20
-0.028453
 30
0.0
  0
VERTEX
  8
LAYER-1
  6
CONTINUOUS
 62
     7
  5
12E
 10
2.425483
 20
-0.022843
 30
0.0
  0
VERTEX
  8
LAYER-1
  6
CONTINUOUS
 62
     7
  5
12F
 10
2.427691
 20
-0.017119
 30
0.0
  0
VERTEX
  8
LAYER-1
  6
CONTINUOUS
 62
     7
  5
130
 10
2.429617
 20
-0.011291
 30
0.0
  0
VERTEX
  8
LAYER-1
  6
CONTINUOUS
 62
     7
  5
131
 10
2.431253
 20
-0.005378
 30
0.0
  0
VERTEX
  8
LAYER-1
  6
CONTINUOUS
 62
     7
  5
132
 10
2.432598
 20
0.00061
 30
0.0
  0
VERTEX
  8
LAYER-1
  6
CONTINUOUS
 62
     7
  5
133
 10
2.433647
 20
0.006655
 30
0.0
  0
VERTEX
  8
LAYER-1
  6
CONTINUOUS
 62
     7
  5
134
 10
2.434398
 20
0.012746
 30
0.0
  0
VERTEX
  8
LAYER-1
  6
CONTINUOUS
 62
     7
  5
135
 10
2.434849
 20
0.018865
 30
0.0
  0
SEQEND
  8
LAYER-1
  6
CONTINUOUS
  5
136
  0
POLYLINE
  8
LAYER-1
  6
CONTINUOUS
 62
     7
  5
137
 66
     1
 10
0.0
 20
0.0
 30
0.0
 40
0.028
 41
0.028
  0
VERTEX
  8
LAYER-1
  6
CONTINUOUS
 62
     7
  5
138
 10
2.935
 20
-1.505
 30
0.0
  0
VERTEX
  8
LAYER-1
  6
CONTINUOUS
 62
     7
  5
139
 10
2.835
 20
-1.505
 30
0.0
  0
SEQEND
  8
LAYER-1
  6
CONTINUOUS
  5
13A
  0
POLYLINE
  8
LAYER-1
  6
CONTINUOUS
 62
     7
  5
13B
 66
     1
 10
0.0
 20
0.0
 30
0.0
 40
0.028
 41
0.028
  0
VERTEX
  8
LAYER-1
  6
CONTINUOUS
 62
     7
  5
13C
 10
2.835
 20
-1.505
 30
0.0
  0
VERTEX
  8
LAYER-1
  6
CONTINUOUS
 62
     7
  5
13D
 10
2.835
 20
0.458
 30
0.0
  0
SEQEND
  8
LAYER-1
  6
CONTINUOUS
  5
13E
  0
POLYLINE
  8
LAYER-1
  6
CONTINUOUS
 62
     7
  5
13F
 66
     1
 10
0.0
 20
0.0
 30
0.0
 40
0.028
 41
0.028
  0
VERTEX
  8
LAYER-1
  6
CONTINUOUS
 62
     7
  5
140
 10
2.835
 20
0.458
 30
0.0
  0
VERTEX
  8
LAYER-1
  6
CONTINUOUS
 62
     7
  5
141
 10
-1.99
 20
0.459166
 30
0.0
  0
SEQEND
  8
LAYER-1
  6
CONTINUOUS
  5
142
  0
LINE
  8
LAYER-1
  6
CONTINUOUS
 62
     7
  5
143
 10
-4.747115
 20
0.458
 30
0.0
 11
-4.777
 21
0.458
 31
0.0
  0
POLYLINE
  8
LAYER-1
  6
CONTINUOUS
 62
     7
  5
144
 66
     1
 10
0.0
 20
0.0
 30
0.0
 70
     5
 40
0.028
 41
0.028
 75
     5
  0
VERTEX
  8
LAYER-1
  6
CONTINUOUS
 62
     7
  5
145
 10
-3.927
 20
0.645
 30
0.0
  0
VERTEX
  8
LAYER-1
  6
CONTINUOUS
 62
     7
  5
146
 10
-3.927301
 20
0.657271
 30
0.0
  0
VERTEX
  8
LAYER-1
  6
CONTINUOUS
 62
     7
  5
147
 10
-3.928204
 20
0.669508
 30
0.0
  0
VERTEX
  8
LAYER-1
  6
CONTINUOUS
 62
     7
  5
148
 10
-3.929707
 20
0.68169
 30
0.0
  0
VERTEX
  8
LAYER-1
  6
CONTINUOUS
 62
     7
  5
149
 10
-3.931805
 20
0.69378
 30
0.0
  0
VERTEX
  8
LAYER-1
  6
CONTINUOUS
 62
     7
  5
14A
 10
-3.934494
 20
0.705756
 30
0.0
  0
VERTEX
  8
LAYER-1
  6
CONTINUOUS
 62
     7
  5
14B
 10
-3.937767
 20
0.717582
 30
0.0
  0
VERTEX
  8
LAYER-1
  6
CONTINUOUS
 62
     7
  5
14C
 10
-3.941617
 20
0.729237
 30
0.0
  0
VERTEX
  8
LAYER-1
  6
CONTINUOUS
 62
     7
  5
14D
 10
-3.946034
 20
0.740685
 30
0.0
  0
VERTEX
  8
LAYER-1
  6
CONTINUOUS
 62
     7
  5
14E
 10
-3.951008
 20
0.751906
 30
0.0
  0
VERTEX
  8
LAYER-1
  6
CONTINUOUS
 62
     7
  5
14F
 10
-3.956526
 20
0.762866
 30
0.0
  0
VERTEX
  8
LAYER-1
  6
CONTINUOUS
 62
     7
  5
150
 10
-3.962577
 20
0.773546
 30
0.0
  0
VERTEX
  8
LAYER-1
  6
CONTINUOUS
 62
     7
  5
151
 10
-3.969142
 20
0.783912
 30
0.0
  0
VERTEX
  8
LAYER-1
  6
CONTINUOUS
 62
     7
  5
152
 10
-3.976211
 20
0.793947
 30
0.0
  0
VERTEX
  8
LAYER-1
  6
CONTINUOUS
 62
     7
  5
153
 10
-3.983762
 20
0.803619
 30
0.0
  0
VERTEX
  8
LAYER-1
  6
CONTINUOUS
 62
     7
  5
154
 10
-3.99178
 20
0.812913
 30
0.0
  0
VERTEX
  8
LAYER-1
  6
CONTINUOUS
 62
     7
  5
155
 10
-4.000245
 20
0.8218
 30
0.0
  0
VERTEX
  8
LAYER-1
  6
CONTINUOUS
 62
     7
  5
156
 10
-4.009135
 20
0.830263
 30
0.0
  0
VERTEX
  8
LAYER-1
  6
CONTINUOUS
 62
     7
  5
157
 10
-4.018428
 20
0.838277
 30
0.0
  0
VERTEX
  8
LAYER-1
  6
CONTINUOUS
 62
     7
  5
158
 10
-4.028105
 20
0.845828
 30
0.0
  0
VERTEX
  8
LAYER-1
  6
CONTINUOUS
 62
     7
  5
159
 10
-4.038139
 20
0.852892
 30
0.0
  0
VERTEX
  8
LAYER-1
  6
CONTINUOUS
 62
     7
  5
15A
 10
-4.04851
 20
0.859457
 30
0.0
  0
VERTEX
  8
LAYER-1
  6
CONTINUOUS
 62
     7
  5
15B
 10
-4.059188
 20
0.865503
 30
0.0
  0
VERTEX
  8
LAYER-1
  6
CONTINUOUS
 62
     7
  5
15C
 10
-4.070152
 20
0.871019
 30
0.0
  0
VERTEX
  8
LAYER-1
  6
CONTINUOUS
 62
     7
  5
15D
 10
-4.081371
 20
0.87599
 30
0.0
  0
VERTEX
  8
LAYER-1
  6
CONTINUOUS
 62
     7
  5
15E
 10
-4.092824
 20
0.880405
 30
0.0
  0
VERTEX
  8
LAYER-1
  6
CONTINUOUS
 62
     7
  5
15F
 10
-4.104476
 20
0.884251
 30
0.0
  0
VERTEX
  8
LAYER-1
  6
CONTINUOUS
 62
     7
  5
160
 10
-4.116307
 20
0.887522
 30
0.0
  0
VERTEX
  8
LAYER-1
  6
CONTINUOUS
 62
     7
  5
161
 10
-4.12828
 20
0.890207
 30
0.0
  0
VERTEX
  8
LAYER-1
  6
CONTINUOUS
 62
     7
  5
162
 10
-4.140374
 20
0.892303
 30
0.0
  0
VERTEX
  8
LAYER-1
  6
CONTINUOUS
 62
     7
  5
163
 10
-4.152553
 20
0.893802
 30
0.0
  0
VERTEX
  8
LAYER-1
  6
CONTINUOUS
 62
     7
  5
164
 10
-4.164794
 20
0.894702
 30
0.0
  0
VERTEX
  8
LAYER-1
  6
CONTINUOUS
 62
     7
  5
165
 10
-4.176939
 20
0.895
 30
0.0
  0
VERTEX
  8
LAYER-1
  6
CONTINUOUS
 62
     7
  5
166
 10
-4.189206
 20
0.894702
 30
0.0
  0
VERTEX
  8
LAYER-1
  6
CONTINUOUS
 62
     7
  5
167
 10
-4.201447
 20
0.893802
 30
0.0
  0
VERTEX
  8
LAYER-1
  6
CONTINUOUS
 62
     7
  5
168
 10
-4.213626
 20
0.892303
 30
0.0
  0
VERTEX
  8
LAYER-1
  6
CONTINUOUS
 62
     7
  5
169
 10
-4.22572
 20
0.890207
 30
0.0
  0
VERTEX
  8
LAYER-1
  6
CONTINUOUS
 62
     7
  5
16A
 10
-4.237693
 20
0.887522
 30
0.0
  0
VERTEX
  8
LAYER-1
  6
CONTINUOUS
 62
     7
  5
16B
 10
-4.249524
 20
0.884251
 30
0.0
  0
VERTEX
  8
LAYER-1
  6
CONTINUOUS
 62
     7
  5
16C
 10
-4.261176
 20
0.880405
 30
0.0
  0
VERTEX
  8
LAYER-1
  6
CONTINUOUS
 62
     7
  5
16D
 10
-4.272629
 20
0.87599
 30
0.0
  0
VERTEX
  8
LAYER-1
  6
CONTINUOUS
 62
     7
  5
16E
 10
-4.283848
 20
0.871019
 30
0.0
  0
VERTEX
  8
LAYER-1
  6
CONTINUOUS
 62
     7
  5
16F
 10
-4.294812
 20
0.865503
 30
0.0
  0
VERTEX
  8
LAYER-1
  6
CONTINUOUS
 62
     7
  5
170
 10
-4.30549
 20
0.859457
 30
0.0
  0
VERTEX
  8
LAYER-1
  6
CONTINUOUS
 62
     7
  5
171
 10
-4.315861
 20
0.852892
 30
0.0
  0
VERTEX
  8
LAYER-1
  6
CONTINUOUS
 62
     7
  5
172
 10
-4.325895
 20
0.845828
 30
0.0
  0
VERTEX
  8
LAYER-1
  6
CONTINUOUS
 62
     7
  5
173
 10
-4.335572
 20
0.838277
 30
0.0
  0
VERTEX
  8
LAYER-1
  6
CONTINUOUS
 62
     7
  5
174
 10
-4.344865
 20
0.830263
 30
0.0
  0
VERTEX
  8
LAYER-1
  6
CONTINUOUS
 62
     7
  5
175
 10
-4.353756
 20
0.8218
 30
0.0
  0
VERTEX
  8
LAYER-1
  6
CONTINUOUS
 62
     7
  5
176
 10
-4.36222
 20
0.812913
 30
0.0
  0
VERTEX
  8
LAYER-1
  6
CONTINUOUS
 62
     7
  5
177
 10
-4.370239
 20
0.803619
 30
0.0
  0
VERTEX
  8
LAYER-1
  6
CONTINUOUS
 62
     7
  5
178
 10
-4.377789
 20
0.793947
 30
0.0
  0
VERTEX
  8
LAYER-1
  6
CONTINUOUS
 62
     7
  5
179
 10
-4.384858
 20
0.783912
 30
0.0
  0
VERTEX
  8
LAYER-1
  6
CONTINUOUS
 62
     7
  5
17A
 10
-4.391424
 20
0.773546
 30
0.0
  0
VERTEX
  8
LAYER-1
  6
CONTINUOUS
 62
     7
  5
17B
 10
-4.397474
 20
0.762866
 30
0.0
  0
VERTEX
  8
LAYER-1
  6
CONTINUOUS
 62
     7
  5
17C
 10
-4.402992
 20
0.751906
 30
0.0
  0
VERTEX
  8
LAYER-1
  6
CONTINUOUS
 62
     7
  5
17D
 10
-4.407966
 20
0.740685
 30
0.0
  0
VERTEX
  8
LAYER-1
  6
CONTINUOUS
 62
     7
  5
17E
 10
-4.412383
 20
0.729237
 30
0.0
  0
VERTEX
  8
LAYER-1
  6
CONTINUOUS
 62
     7
  5
17F
 10
-4.416233
 20
0.717582
 30
0.0
  0
VERTEX
  8
LAYER-1
  6
CONTINUOUS
 62
     7
  5
180
 10
-4.419506
 20
0.705756
 30
0.0
  0
VERTEX
  8
LAYER-1
  6
CONTINUOUS
 62
     7
  5
181
 10
-4.422196
 20
0.69378
 30
0.0
  0
VERTEX
  8
LAYER-1
  6
CONTINUOUS
 62
     7
  5
182
 10
-4.424294
 20
0.68169
 30
0.0
  0
VERTEX
  8
LAYER-1
  6
CONTINUOUS
 62
     7
  5
183
 10
-4.425796
 20
0.669508
 30
0.0
  0
VERTEX
  8
LAYER-1
  6
CONTINUOUS
 62
     7
  5
184
 10
-4.426699
 20
0.657271
 30
0.0
  0
VERTEX
  8
LAYER-1
  6
CONTINUOUS
 62
     7
  5
185
 10
-4.427
 20
0.645
 30
0.0
  0
VERTEX
  8
LAYER-1
  6
CONTINUOUS
 62
     7
  5
186
 10
-4.426699
 20
0.632729
 30
0.0
  0
VERTEX
  8
LAYER-1
  6
CONTINUOUS
 62
     7
  5
187
 10
-4.425796
 20
0.620492
 30
0.0
  0
VERTEX
  8
LAYER-1
  6
CONTINUOUS
 62
     7
  5
188
 10
-4.424294
 20
0.60831
 30
0.0
  0
VERTEX
  8
LAYER-1
  6
CONTINUOUS
 62
     7
  5
189
 10
-4.422196
 20
0.59622
 30
0.0
  0
VERTEX
  8
LAYER-1
  6
CONTINUOUS
 62
     7
  5
18A
 10
-4.419506
 20
0.584244
 30
0.0
  0
VERTEX
  8
LAYER-1
  6
CONTINUOUS
 62
     7
  5
18B
 10
-4.416233
 20
0.572418
 30
0.0
  0
VERTEX
  8
LAYER-1
  6
CONTINUOUS
 62
     7
  5
18C
 10
-4.412383
 20
0.560763
 30
0.0
  0
VERTEX
  8
LAYER-1
  6
CONTINUOUS
 62
     7
  5
18D
 10
-4.407966
 20
0.549315
 30
0.0
  0
VERTEX
  8
LAYER-1
  6
CONTINUOUS
 62
     7
  5
18E
 10
-4.402992
 20
0.538094
 30
0.0
  0
VERTEX
  8
LAYER-1
  6
CONTINUOUS
 62
     7
  5
18F
 10
-4.397474
 20
0.527134
 30
0.0
  0
VERTEX
  8
LAYER-1
  6
CONTINUOUS
 62
     7
  5
190
 10
-4.391424
 20
0.516454
 30
0.0
  0
VERTEX
  8
LAYER-1
  6
CONTINUOUS
 62
     7
  5
191
 10
-4.384858
 20
0.506088
 30
0.0
  0
VERTEX
  8
LAYER-1
  6
CONTINUOUS
 62
     7
  5
192
 10
-4.377789
 20
0.496053
 30
0.0
  0
VERTEX
  8
LAYER-1
  6
CONTINUOUS
 62
     7
  5
193
 10
-4.370239
 20
0.486381
 30
0.0
  0
VERTEX
  8
LAYER-1
  6
CONTINUOUS
 62
     7
  5
194
 10
-4.36222
 20
0.477087
 30
0.0
  0
VERTEX
  8
LAYER-1
  6
CONTINUOUS
 62
     7
  5
195
 10
-4.353756
 20
0.4682
 30
0.0
  0
VERTEX
  8
LAYER-1
  6
CONTINUOUS
 62
     7
  5
196
 10
-4.344865
 20
0.459737
 30
0.0
  0
VERTEX
  8
LAYER-1
  6
CONTINUOUS
 62
     7
  5
197
 10
-4.335572
 20
0.451723
 30
0.0
  0
VERTEX
  8
LAYER-1
  6
CONTINUOUS
 62
     7
  5
198
 10
-4.325895
 20
0.444172
 30
0.0
  0
VERTEX
  8
LAYER-1
  6
CONTINUOUS
 62
     7
  5
199
 10
-4.315861
 20
0.437108
 30
0.0
  0
VERTEX
  8
LAYER-1
  6
CONTINUOUS
 62
     7
  5
19A
 10
-4.30549
 20
0.430543
 30
0.0
  0
VERTEX
  8
LAYER-1
  6
CONTINUOUS
 62
     7
  5
19B
 10
-4.294812
 20
0.424497
 30
0.0
  0
VERTEX
  8
LAYER-1
  6
CONTINUOUS
 62
     7
  5
19C
 10
-4.283848
 20
0.41898
 30
0.0
  0
VERTEX
  8
LAYER-1
  6
CONTINUOUS
 62
     7
  5
19D
 10
-4.272629
 20
0.41401
 30
0.0
  0
VERTEX
  8
LAYER-1
  6
CONTINUOUS
 62
     7
  5
19E
 10
-4.261176
 20
0.409595
 30
0.0
  0
VERTEX
  8
LAYER-1
  6
CONTINUOUS
 62
     7
  5
19F
 10
-4.249524
 20
0.405749
 30
0.0
  0
VERTEX
  8
LAYER-1
  6
CONTINUOUS
 62
     7
  5
1A0
 10
-4.237693
 20
0.402478
 30
0.0
  0
VERTEX
  8
LAYER-1
  6
CONTINUOUS
 62
     7
  5
1A1
 10
-4.22572
 20
0.399793
 30
0.0
  0
VERTEX
  8
LAYER-1
  6
CONTINUOUS
 62
     7
  5
1A2
 10
-4.213626
 20
0.397697
 30
0.0
  0
VERTEX
  8
LAYER-1
  6
CONTINUOUS
 62
     7
  5
1A3
 10
-4.201447
 20
0.396198
 30
0.0
  0
VERTEX
  8
LAYER-1
  6
CONTINUOUS
 62
     7
  5
1A4
 10
-4.189206
 20
0.395298
 30
0.0
  0
VERTEX
  8
LAYER-1
  6
CONTINUOUS
 62
     7
  5
1A5
 10
-4.176939
 20
0.395
 30
0.0
  0
VERTEX
  8
LAYER-1
  6
CONTINUOUS
 62
     7
  5
1A6
 10
-4.164794
 20
0.395298
 30
0.0
  0
VERTEX
  8
LAYER-1
  6
CONTINUOUS
 62
     7
  5
1A7
 10
-4.152553
 20
0.396198
 30
0.0
  0
VERTEX
  8
LAYER-1
  6
CONTINUOUS
 62
     7
  5
1A8
 10
-4.140374
 20
0.397697
 30
0.0
  0
VERTEX
  8
LAYER-1
  6
CONTINUOUS
 62
     7
  5
1A9
 10
-4.12828
 20
0.399793
 30
0.0
  0
VERTEX
  8
LAYER-1
  6
CONTINUOUS
 62
     7
  5
1AA
 10
-4.116307
 20
0.402478
 30
0.0
  0
VERTEX
  8
LAYER-1
  6
CONTINUOUS
 62
     7
  5
1AB
 10
-4.104476
 20
0.405749
 30
0.0
  0
VERTEX
  8
LAYER-1
  6
CONTINUOUS
 62
     7
  5
1AC
 10
-4.092824
 20
0.409595
 30
0.0
  0
VERTEX
  8
LAYER-1
  6
CONTINUOUS
 62
     7
  5
1AD
 10
-4.081371
 20
0.41401
 30
0.0
  0
VERTEX
  8
LAYER-1
  6
CONTINUOUS
 62
     7
  5
1AE
 10
-4.070152
 20
0.41898
 30
0.0
  0
VERTEX
  8
LAYER-1
  6
CONTINUOUS
 62
     7
  5
1AF
 10
-4.059188
 20
0.424497
 30
0.0
  0
VERTEX
  8
LAYER-1
  6
CONTINUOUS
 62
     7
  5
1B0
 10
-4.04851
 20
0.430543
 30
0.0
  0
VERTEX
  8
LAYER-1
  6
CONTINUOUS
 62
     7
  5
1B1
 10
-4.038139
 20
0.437108
 30
0.0
  0
VERTEX
  8
LAYER-1
  6
CONTINUOUS
 62
     7
  5
1B2
 10
-4.028105
 20
0.444172
 30
0.0
  0
VERTEX
  8
LAYER-1
  6
CONTINUOUS
 62
     7
  5
1B3
 10
-4.018428
 20
0.451723
 30
0.0
  0
VERTEX
  8
LAYER-1
  6
CONTINUOUS
 62
     7
  5
1B4
 10
-4.009135
 20
0.459737
 30
0.0
  0
VERTEX
  8
LAYER-1
  6
CONTINUOUS
 62
     7
  5
1B5
 10
-4.000245
 20
0.4682
 30
0.0
  0
VERTEX
  8
LAYER-1
  6
CONTINUOUS
 62
     7
  5
1B6
 10
-3.99178
 20
0.477087
 30
0.0
  0
VERTEX
  8
LAYER-1
  6
CONTINUOUS
 62
     7
  5
1B7
 10
-3.983762
 20
0.486381
 30
0.0
  0
VERTEX
  8
LAYER-1
  6
CONTINUOUS
 62
     7
  5
1B8
 10
-3.976211
 20
0.496053
 30
0.0
  0
VERTEX
  8
LAYER-1
  6
CONTINUOUS
 62
     7
  5
1B9
 10
-3.969142
 20
0.506088
 30
0.0
  0
VERTEX
  8
LAYER-1
  6
CONTINUOUS
 62
     7
  5
1BA
 10
-3.962577
 20
0.516454
 30
0.0
  0
VERTEX
  8
LAYER-1
  6
CONTINUOUS
 62
     7
  5
1BB
 10
-3.956526
 20
0.527134
 30
0.0
  0
VERTEX
  8
LAYER-1
  6
CONTINUOUS
 62
     7
  5
1BC
 10
-3.951008
 20
0.538094
 30
0.0
  0
VERTEX
  8
LAYER-1
  6
CONTINUOUS
 62
     7
  5
1BD
 10
-3.946034
 20
0.549315
 30
0.0
  0
VERTEX
  8
LAYER-1
  6
CONTINUOUS
 62
     7
  5
1BE
 10
-3.941617
 20
0.560763
 30
0.0
  0
VERTEX
  8
LAYER-1
  6
CONTINUOUS
 62
     7
  5
1BF
 10
-3.937767
 20
0.572418
 30
0.0
  0
VERTEX
  8
LAYER-1
  6
CONTINUOUS
 62
     7
  5
1C0
 10
-3.934494
 20
0.584244
 30
0.0
  0
VERTEX
  8
LAYER-1
  6
CONTINUOUS
 62
     7
  5
1C1
 10
-3.931805
 20
0.59622
 30
0.0
  0
VERTEX
  8
LAYER-1
  6
CONTINUOUS
 62
     7
  5
1C2
 10
-3.929707
 20
0.60831
 30
0.0
  0
VERTEX
  8
LAYER-1
  6
CONTINUOUS
 62
     7
  5
1C3
 10
-3.928204
 20
0.620492
 30
0.0
  0
VERTEX
  8
LAYER-1
  6
CONTINUOUS
 62
     7
  5
1C4
 10
-3.927301
 20
0.632729
 30
0.0
  0
SEQEND
  8
LAYER-1
  6
CONTINUOUS
  5
1C5
  0
ARC
  8
LAYER-1
  6
CONTINUOUS
 62
     7
  5
1C6
 10
-4.177
 20
0.645
 30
0.0
 40
0.6
 50
58.667751
 51
58.667751
  0
POLYLINE
  8
LAYER-1
  6
CONTINUOUS
 62
     7
  5
1C7
 66
     1
 10
0.0
 20
0.0
 30
0.0
 70
     4
 40
0.028
 41
0.028
 75
     5
  0
VERTEX
  8
LAYER-1
  6
CONTINUOUS
 62
     7
  5
1C8
 10
-3.865
 20
1.1575
 30
0.0
  0
VERTEX
  8
LAYER-1
  6
CONTINUOUS
 62
     7
  5
1C9
 10
-3.877956
 20
1.165174
 30
0.0
  0
VERTEX
  8
LAYER-1
  6
CONTINUOUS
 62
     7
  5
1CA
 10
-3.891025
 20
1.172472
 30
0.0
  0
VERTEX
  8
LAYER-1
  6
CONTINUOUS
 62
     7
  5
1CB
 10
-3.904272
 20
1.179441
 30
0.0
  0
VERTEX
  8
LAYER-1
  6
CONTINUOUS
 62
     7
  5
1CC
 10
-3.917681
 20
1.186074
 30
0.0
  0
VERTEX
  8
LAYER-1
  6
CONTINUOUS
 62
     7
  5
1CD
 10
-3.931259
 20
1.192374
 30
0.0
  0
VERTEX
  8
LAYER-1
  6
CONTINUOUS
 62
     7
  5
1CE
 10
-3.944981
 20
1.19833
 30
0.0
  0
VERTEX
  8
LAYER-1
  6
CONTINUOUS
 62
     7
  5
1CF
 10
-3.958856
 20
1.203945
 30
0.0
  0
VERTEX
  8
LAYER-1
  6
CONTINUOUS
 62
     7
  5
1D0
 10
-3.972858
 20
1.209209
 30
0.0
  0
VERTEX
  8
LAYER-1
  6
CONTINUOUS
 62
     7
  5
1D1
 10
-3.986996
 20
1.214125
 30
0.0
  0
VERTEX
  8
LAYER-1
  6
CONTINUOUS
 62
     7
  5
1D2
 10
-4.001252
 20
1.218687
 30
0.0
  0
VERTEX
  8
LAYER-1
  6
CONTINUOUS
 62
     7
  5
1D3
 10
-4.015609
 20
1.22289
 30
0.0
  0
VERTEX
  8
LAYER-1
  6
CONTINUOUS
 62
     7
  5
1D4
 10
-4.030075
 20
1.226736
 30
0.0
  0
VERTEX
  8
LAYER-1
  6
CONTINUOUS
 62
     7
  5
1D5
 10
-4.044624
 20
1.230217
 30
0.0
  0
VERTEX
  8
LAYER-1
  6
CONTINUOUS
 62
     7
  5
1D6
 10
-4.059263
 20
1.233337
 30
0.0
  0
VERTEX
  8
LAYER-1
  6
CONTINUOUS
 62
     7
  5
1D7
 10
-4.073967
 20
1.236089
 30
0.0
  0
VERTEX
  8
LAYER-1
  6
CONTINUOUS
 62
     7
  5
1D8
 10
-4.088744
 20
1.238475
 30
0.0
  0
VERTEX
  8
LAYER-1
  6
CONTINUOUS
 62
     7
  5
1D9
 10
-4.103576
 20
1.240491
 30
0.0
  0
VERTEX
  8
LAYER-1
  6
CONTINUOUS
 62
     7
  5
1DA
 10
-4.118445
 20
1.242136
 30
0.0
  0
VERTEX
  8
LAYER-1
  6
CONTINUOUS
 62
     7
  5
1DB
 10
-4.133359
 20
1.243411
 30
0.0
  0
VERTEX
  8
LAYER-1
  6
CONTINUOUS
 62
     7
  5
1DC
 10
-4.148291
 20
1.244313
 30
0.0
  0
VERTEX
  8
LAYER-1
  6
CONTINUOUS
 62
     7
  5
1DD
 10
-4.16325
 20
1.244842
 30
0.0
  0
VERTEX
  8
LAYER-1
  6
CONTINUOUS
 62
     7
  5
1DE
 10
-4.177916
 20
1.244999
 30
0.0
  0
VERTEX
  8
LAYER-1
  6
CONTINUOUS
 62
     7
  5
1DF
 10
-4.192883
 20
1.24479
 30
0.0
  0
VERTEX
  8
LAYER-1
  6
CONTINUOUS
 62
     7
  5
1E0
 10
-4.20784
 20
1.244207
 30
0.0
  0
VERTEX
  8
LAYER-1
  6
CONTINUOUS
 62
     7
  5
1E1
 10
-4.222768
 20
1.243252
 30
0.0
  0
VERTEX
  8
LAYER-1
  6
CONTINUOUS
 62
     7
  5
1E2
 10
-4.237678
 20
1.241924
 30
0.0
  0
VERTEX
  8
LAYER-1
  6
CONTINUOUS
 62
     7
  5
1E3
 10
-4.252541
 20
1.240226
 30
0.0
  0
VERTEX
  8
LAYER-1
  6
CONTINUOUS
 62
     7
  5
1E4
 10
-4.267365
 20
1.238157
 30
0.0
  0
VERTEX
  8
LAYER-1
  6
CONTINUOUS
 62
     7
  5
1E5
 10
-4.282125
 20
1.23572
 30
0.0
  0
VERTEX
  8
LAYER-1
  6
CONTINUOUS
 62
     7
  5
1E6
 10
-4.296828
 20
1.232915
 30
0.0
  0
VERTEX
  8
LAYER-1
  6
CONTINUOUS
 62
     7
  5
1E7
 10
-4.311456
 20
1.229743
 30
0.0
  0
VERTEX
  8
LAYER-1
  6
CONTINUOUS
 62
     7
  5
1E8
 10
-4.325992
 20
1.22621
 30
0.0
  0
VERTEX
  8
LAYER-1
  6
CONTINUOUS
 62
     7
  5
1E9
 10
-4.340445
 20
1.222313
 30
0.0
  0
VERTEX
  8
LAYER-1
  6
CONTINUOUS
 62
     7
  5
1EA
 10
-4.354786
 20
1.218059
 30
0.0
  0
VERTEX
  8
LAYER-1
  6
CONTINUOUS
 62
     7
  5
1EB
 10
-4.369026
 20
1.213446
 30
0.0
  0
VERTEX
  8
LAYER-1
  6
CONTINUOUS
 62
     7
  5
1EC
 10
-4.383138
 20
1.208483
 30
0.0
  0
VERTEX
  8
LAYER-1
  6
CONTINUOUS
 62
     7
  5
1ED
 10
-4.39713
 20
1.203166
 30
0.0
  0
VERTEX
  8
LAYER-1
  6
CONTINUOUS
 62
     7
  5
1EE
 10
-4.410977
 20
1.197505
 30
0.0
  0
VERTEX
  8
LAYER-1
  6
CONTINUOUS
 62
     7
  5
1EF
 10
-4.424686
 20
1.191497
 30
0.0
  0
VERTEX
  8
LAYER-1
  6
CONTINUOUS
 62
     7
  5
1F0
 10
-4.438242
 20
1.185148
 30
0.0
  0
VERTEX
  8
LAYER-1
  6
CONTINUOUS
 62
     7
  5
1F1
 10
-4.451626
 20
1.178468
 30
0.0
  0
VERTEX
  8
LAYER-1
  6
CONTINUOUS
 62
     7
  5
1F2
 10
-4.464848
 20
1.171452
 30
0.0
  0
VERTEX
  8
LAYER-1
  6
CONTINUOUS
 62
     7
  5
1F3
 10
-4.477883
 20
1.164112
 30
0.0
  0
VERTEX
  8
LAYER-1
  6
CONTINUOUS
 62
     7
  5
1F4
 10
-4.490739
 20
1.156445
 30
0.0
  0
VERTEX
  8
LAYER-1
  6
CONTINUOUS
 62
     7
  5
1F5
 10
-4.503392
 20
1.148465
 30
0.0
  0
VERTEX
  8
LAYER-1
  6
CONTINUOUS
 62
     7
  5
1F6
 10
-4.515849
 20
1.140166
 30
0.0
  0
VERTEX
  8
LAYER-1
  6
CONTINUOUS
 62
     7
  5
1F7
 10
-4.528096
 20
1.131559
 30
0.0
  0
VERTEX
  8
LAYER-1
  6
CONTINUOUS
 62
     7
  5
1F8
 10
-4.540116
 20
1.122655
 30
0.0
  0
VERTEX
  8
LAYER-1
  6
CONTINUOUS
 62
     7
  5
1F9
 10
-4.551918
 20
1.113448
 30
0.0
  0
VERTEX
  8
LAYER-1
  6
CONTINUOUS
 62
     7
  5
1FA
 10
-4.56348
 20
1.103955
 30
0.0
  0
VERTEX
  8
LAYER-1
  6
CONTINUOUS
 62
     7
  5
1FB
 10
-4.574809
 20
1.094171
 30
0.0
  0
VERTEX
  8
LAYER-1
  6
CONTINUOUS
 62
     7
  5
1FC
 10
-4.585883
 20
1.084114
 30
0.0
  0
VERTEX
  8
LAYER-1
  6
CONTINUOUS
 62
     7
  5
1FD
 10
-4.596709
 20
1.073777
 30
0.0
  0
VERTEX
  8
LAYER-1
  6
CONTINUOUS
 62
     7
  5
1FE
 10
-4.607279
 20
1.063169
 30
0.0
  0
VERTEX
  8
LAYER-1
  6
CONTINUOUS
 62
     7
  5
1FF
 10
-4.617571
 20
1.052312
 30
0.0
  0
VERTEX
  8
LAYER-1
  6
CONTINUOUS
 62
     7
  5
200
 10
-4.627595
 20
1.041195
 30
0.0
  0
VERTEX
  8
LAYER-1
  6
CONTINUOUS
 62
     7
  5
201
 10
-4.637332
 20
1.029839
 30
0.0
  0
VERTEX
  8
LAYER-1
  6
CONTINUOUS
 62
     7
  5
202
 10
-4.646789
 20
1.018236
 30
0.0
  0
VERTEX
  8
LAYER-1
  6
CONTINUOUS
 62
     7
  5
203
 10
-4.655948
 20
1.006408
 30
0.0
  0
VERTEX
  8
LAYER-1
  6
CONTINUOUS
 62
     7
  5
204
 10
-4.664815
 20
0.994348
 30
0.0
  0
VERTEX
  8
LAYER-1
  6
CONTINUOUS
 62
     7
  5
205
 10
-4.673378
 20
0.982071
 30
0.0
  0
VERTEX
  8
LAYER-1
  6
CONTINUOUS
 62
     7
  5
206
 10
-4.681627
 20
0.969592
 30
0.0
  0
VERTEX
  8
LAYER-1
  6
CONTINUOUS
 62
     7
  5
207
 10
-4.689567
 20
0.956903
 30
0.0
  0
VERTEX
  8
LAYER-1
  6
CONTINUOUS
 62
     7
  5
208
 10
-4.697183
 20
0.944028
 30
0.0
  0
VERTEX
  8
LAYER-1
  6
CONTINUOUS
 62
     7
  5
209
 10
-4.70448
 20
0.930959
 30
0.0
  0
VERTEX
  8
LAYER-1
  6
CONTINUOUS
 62
     7
  5
20A
 10
-4.711445
 20
0.91772
 30
0.0
  0
VERTEX
  8
LAYER-1
  6
CONTINUOUS
 62
     7
  5
20B
 10
-4.718082
 20
0.904303
 30
0.0
  0
VERTEX
  8
LAYER-1
  6
CONTINUOUS
 62
     7
  5
20C
 10
-4.724381
 20
0.890725
 30
0.0
  0
VERTEX
  8
LAYER-1
  6
CONTINUOUS
 62
     7
  5
20D
 10
-4.730337
 20
0.877002
 30
0.0
  0
VERTEX
  8
LAYER-1
  6
CONTINUOUS
 62
     7
  5
20E
 10
-4.735951
 20
0.863127
 30
0.0
  0
VERTEX
  8
LAYER-1
  6
CONTINUOUS
 62
     7
  5
20F
 10
-4.741215
 20
0.849124
 30
0.0
  0
VERTEX
  8
LAYER-1
  6
CONTINUOUS
 62
     7
  5
210
 10
-4.746131
 20
0.834986
 30
0.0
  0
VERTEX
  8
LAYER-1
  6
CONTINUOUS
 62
     7
  5
211
 10
-4.75069
 20
0.820739
 30
0.0
  0
VERTEX
  8
LAYER-1
  6
CONTINUOUS
 62
     7
  5
212
 10
-4.754895
 20
0.806373
 30
0.0
  0
VERTEX
  8
LAYER-1
  6
CONTINUOUS
 62
     7
  5
213
 10
-4.758738
 20
0.791916
 30
0.0
  0
VERTEX
  8
LAYER-1
  6
CONTINUOUS
 62
     7
  5
214
 10
-4.762221
 20
0.777359
 30
0.0
  0
VERTEX
  8
LAYER-1
  6
CONTINUOUS
 62
     7
  5
215
 10
-4.76534
 20
0.762719
 30
0.0
  0
VERTEX
  8
LAYER-1
  6
CONTINUOUS
 62
     7
  5
216
 10
-4.768092
 20
0.748015
 30
0.0
  0
VERTEX
  8
LAYER-1
  6
CONTINUOUS
 62
     7
  5
217
 10
-4.770477
 20
0.733238
 30
0.0
  0
VERTEX
  8
LAYER-1
  6
CONTINUOUS
 62
     7
  5
218
 10
-4.772492
 20
0.718415
 30
0.0
  0
VERTEX
  8
LAYER-1
  6
CONTINUOUS
 62
     7
  5
219
 10
-4.774138
 20
0.703537
 30
0.0
  0
VERTEX
  8
LAYER-1
  6
CONTINUOUS
 62
     7
  5
21A
 10
-4.775412
 20
0.688632
 30
0.0
  0
VERTEX
  8
LAYER-1
  6
CONTINUOUS
 62
     7
  5
21B
 10
-4.776314
 20
0.673691
 30
0.0
  0
VERTEX
  8
LAYER-1
  6
CONTINUOUS
 62
     7
  5
21C
 10
-4.776843
 20
0.658732
 30
0.0
  0
VERTEX
  8
LAYER-1
  6
CONTINUOUS
 62
     7
  5
21D
 10
-4.776999
 20
0.643773
 30
0.0
  0
VERTEX
  8
LAYER-1
  6
CONTINUOUS
 62
     7
  5
21E
 10
-4.776782
 20
0.628806
 30
0.0
  0
VERTEX
  8
LAYER-1
  6
CONTINUOUS
 62
     7
  5
21F
 10
-4.776192
 20
0.613859
 30
0.0
  0
VERTEX
  8
LAYER-1
  6
CONTINUOUS
 62
     7
  5
220
 10
-4.775228
 20
0.598921
 30
0.0
  0
VERTEX
  8
LAYER-1
  6
CONTINUOUS
 62
     7
  5
221
 10
-4.773894
 20
0.584021
 30
0.0
  0
VERTEX
  8
LAYER-1
  6
CONTINUOUS
 62
     7
  5
222
 10
-4.772187
 20
0.569151
 30
0.0
  0
VERTEX
  8
LAYER-1
  6
CONTINUOUS
 62
     7
  5
223
 10
-4.77011
 20
0.554327
 30
0.0
  0
VERTEX
  8
LAYER-1
  6
CONTINUOUS
 62
     7
  5
224
 10
-4.767666
 20
0.539569
 30
0.0
  0
VERTEX
  8
LAYER-1
  6
CONTINUOUS
 62
     7
  5
225
 10
-4.764852
 20
0.524867
 30
0.0
  0
VERTEX
  8
LAYER-1
  6
CONTINUOUS
 62
     7
  5
226
 10
-4.761675
 20
0.510249
 30
0.0
  0
VERTEX
  8
LAYER-1
  6
CONTINUOUS
 62
     7
  5
227
 10
-4.758132
 20
0.495706
 30
0.0
  0
VERTEX
  8
LAYER-1
  6
CONTINUOUS
 62
     7
  5
228
 10
-4.75423
 20
0.481265
 30
0.0
  0
VERTEX
  8
LAYER-1
  6
CONTINUOUS
 62
     7
  5
229
 10
-4.749967
 20
0.466917
 30
0.0
  0
VERTEX
  8
LAYER-1
  6
CONTINUOUS
 62
     7
  5
22A
 10
-4.745347
 20
0.452679
 30
0.0
  0
VERTEX
  8
LAYER-1
  6
CONTINUOUS
 62
     7
  5
22B
 10
-4.740376
 20
0.43857
 30
0.0
  0
VERTEX
  8
LAYER-1
  6
CONTINUOUS
 62
     7
  5
22C
 10
-4.735052
 20
0.424581
 30
0.0
  0
VERTEX
  8
LAYER-1
  6
CONTINUOUS
 62
     7
  5
22D
 10
-4.729383
 20
0.410737
 30
0.0
  0
VERTEX
  8
LAYER-1
  6
CONTINUOUS
 62
     7
  5
22E
 10
-4.723368
 20
0.39703
 30
0.0
  0
VERTEX
  8
LAYER-1
  6
CONTINUOUS
 62
     7
  5
22F
 10
-4.717017
 20
0.383487
 30
0.0
  0
VERTEX
  8
LAYER-1
  6
CONTINUOUS
 62
     7
  5
230
 10
-4.710325
 20
0.370097
 30
0.0
  0
VERTEX
  8
LAYER-1
  6
CONTINUOUS
 62
     7
  5
231
 10
-4.703307
 20
0.356887
 30
0.0
  0
VERTEX
  8
LAYER-1
  6
CONTINUOUS
 62
     7
  5
232
 10
-4.695956
 20
0.343848
 30
0.0
  0
VERTEX
  8
LAYER-1
  6
CONTINUOUS
 62
     7
  5
233
 10
-4.688282
 20
0.330996
 30
0.0
  0
VERTEX
  8
LAYER-1
  6
CONTINUOUS
 62
     7
  5
234
 10
-4.680295
 20
0.318347
 30
0.0
  0
VERTEX
  8
LAYER-1
  6
CONTINUOUS
 62
     7
  5
235
 10
-4.67199
 20
0.305894
 30
0.0
  0
VERTEX
  8
LAYER-1
  6
CONTINUOUS
 62
     7
  5
236
 10
-4.663382
 20
0.29366
 30
0.0
  0
VERTEX
  8
LAYER-1
  6
CONTINUOUS
 62
     7
  5
237
 10
-4.654466
 20
0.281636
 30
0.0
  0
VERTEX
  8
LAYER-1
  6
CONTINUOUS
 62
     7
  5
238
 10
-4.645259
 20
0.269846
 30
0.0
  0
VERTEX
  8
LAYER-1
  6
CONTINUOUS
 62
     7
  5
239
 10
-4.635755
 20
0.258282
 30
0.0
  0
VERTEX
  8
LAYER-1
  6
CONTINUOUS
 62
     7
  5
23A
 10
-4.625965
 20
0.246958
 30
0.0
  0
VERTEX
  8
LAYER-1
  6
CONTINUOUS
 62
     7
  5
23B
 10
-4.615901
 20
0.235889
 30
0.0
  0
VERTEX
  8
LAYER-1
  6
CONTINUOUS
 62
     7
  5
23C
 10
-4.605559
 20
0.225068
 30
0.0
  0
VERTEX
  8
LAYER-1
  6
CONTINUOUS
 62
     7
  5
23D
 10
-4.594952
 20
0.21451
 30
0.0
  0
VERTEX
  8
LAYER-1
  6
CONTINUOUS
 62
     7
  5
23E
 10
-4.584084
 20
0.204218
 30
0.0
  0
VERTEX
  8
LAYER-1
  6
CONTINUOUS
 62
     7
  5
23F
 10
-4.572969
 20
0.194206
 30
0.0
  0
VERTEX
  8
LAYER-1
  6
CONTINUOUS
 62
     7
  5
240
 10
-4.5616
 20
0.184468
 30
0.0
  0
VERTEX
  8
LAYER-1
  6
CONTINUOUS
 62
     7
  5
241
 10
-4.549993
 20
0.175017
 30
0.0
  0
VERTEX
  8
LAYER-1
  6
CONTINUOUS
 62
     7
  5
242
 10
-4.53816
 20
0.165864
 30
0.0
  0
VERTEX
  8
LAYER-1
  6
CONTINUOUS
 62
     7
  5
243
 10
-4.526096
 20
0.157004
 30
0.0
  0
VERTEX
  8
LAYER-1
  6
CONTINUOUS
 62
     7
  5
244
 10
-4.513821
 20
0.148452
 30
0.0
  0
VERTEX
  8
LAYER-1
  6
CONTINUOUS
 62
     7
  5
245
 10
-4.50133
 20
0.140205
 30
0.0
  0
VERTEX
  8
LAYER-1
  6
CONTINUOUS
 62
     7
  5
246
 10
-4.488645
 20
0.132276
 30
0.0
  0
VERTEX
  8
LAYER-1
  6
CONTINUOUS
 62
     7
  5
247
 10
-4.475758
 20
0.124662
 30
0.0
  0
VERTEX
  8
LAYER-1
  6
CONTINUOUS
 62
     7
  5
248
 10
-4.462778
 20
0.117429
 30
0.0
  0
SEQEND
  8
LAYER-1
  6
CONTINUOUS
  5
249
  0
POLYLINE
  8
LAYER-1
  6
CONTINUOUS
 62
     7
  5
24A
 66
     1
 10
0.0
 20
0.0
 30
0.0
 40
0.028
 41
0.028
  0
VERTEX
  8
LAYER-1
  6
CONTINUOUS
 62
     7
  5
24B
 10
1.76
 20
-2.605
 30
0.0
  0
VERTEX
  8
LAYER-1
  6
CONTINUOUS
 62
     7
  5
24C
 10
-4.462778
 20
0.117429
 30
0.0
  0
SEQEND
  8
LAYER-1
  6
CONTINUOUS
  5
24D
  0
POLYLINE
  8
LAYER-1
  6
CONTINUOUS
 62
     7
  5
24E
 66
     1
 10
0.0
 20
0.0
 30
0.0
 40
0.028
 41
0.028
  0
VERTEX
  8
LAYER-1
  6
CONTINUOUS
 62
     7
  5
24F
 10
-3.865
 20
1.1575
 30
0.0
  0
VERTEX
  8
LAYER-1
  6
CONTINUOUS
 62
     7
  5
250
 10
-2.523717
 20
0.580129
 30
0.0
  0
SEQEND
  8
LAYER-1
  6
CONTINUOUS
  5
251
  0
LINE
  8
LAYER-1
  6
CONTINUOUS
 62
     7
  5
252
 10
-2.353006
 20
0.484317
 30
0.0
 11
-2.353006
 21
0.484317
 31
0.0
  0
ARC
  8
LAYER-1
  6
CONTINUOUS
 62
     7
  5
253
 10
-6.342157
 20
-12.71457
 30
0.0
 40
1.5
 50
71.716683
 51
75.558452
  0
ARC
  8
LAYER-1
  6
CONTINUOUS
 62
     7
  5
254
 10
-1.930866
 20
1.958
 30
0.0
 40
1.5
 50
246.709991
 51
246.71944
  0
POLYLINE
  8
LAYER-1
  6
CONTINUOUS
 62
     7
  5
255
 66
     1
 10
0.0
 20
0.0
 30
0.0
 70
     4
 40
0.028
 41
0.028
 75
     5
  0
VERTEX
  8
LAYER-1
  6
CONTINUOUS
 62
     7
  5
256
 10
-2.523717
 20
0.580129
 30
0.0
  0
VERTEX
  8
LAYER-1
  6
CONTINUOUS
 62
     7
  5
257
 10
-2.519094
 20
0.578134
 30
0.0
  0
VERTEX
  8
LAYER-1
  6
CONTINUOUS
 62
     7
  5
258
 10
-2.514711
 20
0.576274
 30
0.0
  0
VERTEX
  8
LAYER-1
  6
CONTINUOUS
 62
     7
  5
259
 10
-2.510323
 20
0.574428
 30
0.0
  0
VERTEX
  8
LAYER-1
  6
CONTINUOUS
 62
     7
  5
25A
 10
-2.505929
 20
0.572596
 30
0.0
  0
VERTEX
  8
LAYER-1
  6
CONTINUOUS
 62
     7
  5
25B
 10
-2.501529
 20
0.570778
 30
0.0
  0
VERTEX
  8
LAYER-1
  6
CONTINUOUS
 62
     7
  5
25C
 10
-2.497123
 20
0.568974
 30
0.0
  0
VERTEX
  8
LAYER-1
  6
CONTINUOUS
 62
     7
  5
25D
 10
-2.492691
 20
0.567176
 30
0.0
  0
VERTEX
  8
LAYER-1
  6
CONTINUOUS
 62
     7
  5
25E
 10
-2.488274
 20
0.5654
 30
0.0
  0
VERTEX
  8
LAYER-1
  6
CONTINUOUS
 62
     7
  5
25F
 10
-2.483851
 20
0.563638
 30
0.0
  0
VERTEX
  8
LAYER-1
  6
CONTINUOUS
 62
     7
  5
260
 10
-2.479423
 20
0.56189
 30
0.0
  0
VERTEX
  8
LAYER-1
  6
CONTINUOUS
 62
     7
  5
261
 10
-2.474989
 20
0.560156
 30
0.0
  0
VERTEX
  8
LAYER-1
  6
CONTINUOUS
 62
     7
  5
262
 10
-2.47055
 20
0.558436
 30
0.0
  0
VERTEX
  8
LAYER-1
  6
CONTINUOUS
 62
     7
  5
263
 10
-2.466105
 20
0.556731
 30
0.0
  0
VERTEX
  8
LAYER-1
  6
CONTINUOUS
 62
     7
  5
264
 10
-2.461655
 20
0.555039
 30
0.0
  0
VERTEX
  8
LAYER-1
  6
CONTINUOUS
 62
     7
  5
265
 10
-2.4572
 20
0.553362
 30
0.0
  0
VERTEX
  8
LAYER-1
  6
CONTINUOUS
 62
     7
  5
266
 10
-2.452739
 20
0.551698
 30
0.0
  0
VERTEX
  8
LAYER-1
  6
CONTINUOUS
 62
     7
  5
267
 10
-2.448273
 20
0.550049
 30
0.0
  0
VERTEX
  8
LAYER-1
  6
CONTINUOUS
 62
     7
  5
268
 10
-2.443802
 20
0.548414
 30
0.0
  0
VERTEX
  8
LAYER-1
  6
CONTINUOUS
 62
     7
  5
269
 10
-2.439326
 20
0.546794
 30
0.0
  0
VERTEX
  8
LAYER-1
  6
CONTINUOUS
 62
     7
  5
26A
 10
-2.434823
 20
0.54518
 30
0.0
  0
VERTEX
  8
LAYER-1
  6
CONTINUOUS
 62
     7
  5
26B
 10
-2.430336
 20
0.543587
 30
0.0
  0
VERTEX
  8
LAYER-1
  6
CONTINUOUS
 62
     7
  5
26C
 10
-2.425845
 20
0.542009
 30
0.0
  0
VERTEX
  8
LAYER-1
  6
CONTINUOUS
 62
     7
  5
26D
 10
-2.421348
 20
0.540446
 30
0.0
  0
VERTEX
  8
LAYER-1
  6
CONTINUOUS
 62
     7
  5
26E
 10
-2.416847
 20
0.538896
 30
0.0
  0
VERTEX
  8
LAYER-1
  6
CONTINUOUS
 62
     7
  5
26F
 10
-2.41234
 20
0.537361
 30
0.0
  0
VERTEX
  8
LAYER-1
  6
CONTINUOUS
 62
     7
  5
270
 10
-2.407829
 20
0.53584
 30
0.0
  0
VERTEX
  8
LAYER-1
  6
CONTINUOUS
 62
     7
  5
271
 10
-2.403313
 20
0.534334
 30
0.0
  0
VERTEX
  8
LAYER-1
  6
CONTINUOUS
 62
     7
  5
272
 10
-2.398792
 20
0.532842
 30
0.0
  0
VERTEX
  8
LAYER-1
  6
CONTINUOUS
 62
     7
  5
273
 10
-2.394267
 20
0.531364
 30
0.0
  0
VERTEX
  8
LAYER-1
  6
CONTINUOUS
 62
     7
  5
274
 10
-2.389737
 20
0.529901
 30
0.0
  0
VERTEX
  8
LAYER-1
  6
CONTINUOUS
 62
     7
  5
275
 10
-2.385202
 20
0.528452
 30
0.0
  0
VERTEX
  8
LAYER-1
  6
CONTINUOUS
 62
     7
  5
276
 10
-2.380662
 20
0.527017
 30
0.0
  0
VERTEX
  8
LAYER-1
  6
CONTINUOUS
 62
     7
  5
277
 10
-2.376097
 20
0.52559
 30
0.0
  0
VERTEX
  8
LAYER-1
  6
CONTINUOUS
 62
     7
  5
278
 10
-2.371548
 20
0.524184
 30
0.0
  0
VERTEX
  8
LAYER-1
  6
CONTINUOUS
 62
     7
  5
279
 10
-2.366995
 20
0.522793
 30
0.0
  0
VERTEX
  8
LAYER-1
  6
CONTINUOUS
 62
     7
  5
27A
 10
-2.362438
 20
0.521416
 30
0.0
  0
VERTEX
  8
LAYER-1
  6
CONTINUOUS
 62
     7
  5
27B
 10
-2.357876
 20
0.520054
 30
0.0
  0
VERTEX
  8
LAYER-1
  6
CONTINUOUS
 62
     7
  5
27C
 10
-2.353311
 20
0.518706
 30
0.0
  0
VERTEX
  8
LAYER-1
  6
CONTINUOUS
 62
     7
  5
27D
 10
-2.34874
 20
0.517373
 30
0.0
  0
VERTEX
  8
LAYER-1
  6
CONTINUOUS
 62
     7
  5
27E
 10
-2.344166
 20
0.516054
 30
0.0
  0
VERTEX
  8
LAYER-1
  6
CONTINUOUS
 62
     7
  5
27F
 10
-2.339587
 20
0.51475
 30
0.0
  0
VERTEX
  8
LAYER-1
  6
CONTINUOUS
 62
     7
  5
280
 10
-2.335005
 20
0.51346
 30
0.0
  0
VERTEX
  8
LAYER-1
  6
CONTINUOUS
 62
     7
  5
281
 10
-2.330418
 20
0.512185
 30
0.0
  0
VERTEX
  8
LAYER-1
  6
CONTINUOUS
 62
     7
  5
282
 10
-2.325827
 20
0.510924
 30
0.0
  0
VERTEX
  8
LAYER-1
  6
CONTINUOUS
 62
     7
  5
283
 10
-2.321233
 20
0.509678
 30
0.0
  0
VERTEX
  8
LAYER-1
  6
CONTINUOUS
 62
     7
  5
284
 10
-2.316612
 20
0.50844
 30
0.0
  0
VERTEX
  8
LAYER-1
  6
CONTINUOUS
 62
     7
  5
285
 10
-2.312009
 20
0.507224
 30
0.0
  0
VERTEX
  8
LAYER-1
  6
CONTINUOUS
 62
     7
  5
286
 10
-2.307403
 20
0.506021
 30
0.0
  0
VERTEX
  8
LAYER-1
  6
CONTINUOUS
 62
     7
  5
287
 10
-2.302793
 20
0.504834
 30
0.0
  0
VERTEX
  8
LAYER-1
  6
CONTINUOUS
 62
     7
  5
288
 10
-2.298179
 20
0.503661
 30
0.0
  0
VERTEX
  8
LAYER-1
  6
CONTINUOUS
 62
     7
  5
289
 10
-2.293561
 20
0.502503
 30
0.0
  0
VERTEX
  8
LAYER-1
  6
CONTINUOUS
 62
     7
  5
28A
 10
-2.28894
 20
0.501359
 30
0.0
  0
VERTEX
  8
LAYER-1
  6
CONTINUOUS
 62
     7
  5
28B
 10
-2.284315
 20
0.50023
 30
0.0
  0
VERTEX
  8
LAYER-1
  6
CONTINUOUS
 62
     7
  5
28C
 10
-2.279686
 20
0.499116
 30
0.0
  0
VERTEX
  8
LAYER-1
  6
CONTINUOUS
 62
     7
  5
28D
 10
-2.275054
 20
0.498016
 30
0.0
  0
VERTEX
  8
LAYER-1
  6
CONTINUOUS
 62
     7
  5
28E
 10
-2.270419
 20
0.496931
 30
0.0
  0
VERTEX
  8
LAYER-1
  6
CONTINUOUS
 62
     7
  5
28F
 10
-2.26578
 20
0.495861
 30
0.0
  0
VERTEX
  8
LAYER-1
  6
CONTINUOUS
 62
     7
  5
290
 10
-2.261138
 20
0.494806
 30
0.0
  0
VERTEX
  8
LAYER-1
  6
CONTINUOUS
 62
     7
  5
291
 10
-2.25647
 20
0.49376
 30
0.0
  0
VERTEX
  8
LAYER-1
  6
CONTINUOUS
 62
     7
  5
292
 10
-2.251821
 20
0.492734
 30
0.0
  0
VERTEX
  8
LAYER-1
  6
CONTINUOUS
 62
     7
  5
293
 10
-2.247169
 20
0.491723
 30
0.0
  0
VERTEX
  8
LAYER-1
  6
CONTINUOUS
 62
     7
  5
294
 10
-2.242514
 20
0.490727
 30
0.0
  0
VERTEX
  8
LAYER-1
  6
CONTINUOUS
 62
     7
  5
295
 10
-2.237855
 20
0.489745
 30
0.0
  0
VERTEX
  8
LAYER-1
  6
CONTINUOUS
 62
     7
  5
296
 10
-2.233194
 20
0.488778
 30
0.0
  0
VERTEX
  8
LAYER-1
  6
CONTINUOUS
 62
     7
  5
297
 10
-2.228529
 20
0.487826
 30
0.0
  0
VERTEX
  8
LAYER-1
  6
CONTINUOUS
 62
     7
  5
298
 10
-2.223862
 20
0.486889
 30
0.0
  0
VERTEX
  8
LAYER-1
  6
CONTINUOUS
 62
     7
  5
299
 10
-2.219191
 20
0.485967
 30
0.0
  0
VERTEX
  8
LAYER-1
  6
CONTINUOUS
 62
     7
  5
29A
 10
-2.214518
 20
0.485059
 30
0.0
  0
VERTEX
  8
LAYER-1
  6
CONTINUOUS
 62
     7
  5
29B
 10
-2.209842
 20
0.484166
 30
0.0
  0
VERTEX
  8
LAYER-1
  6
CONTINUOUS
 62
     7
  5
29C
 10
-2.205163
 20
0.483289
 30
0.0
  0
VERTEX
  8
LAYER-1
  6
CONTINUOUS
 62
     7
  5
29D
 10
-2.200481
 20
0.482426
 30
0.0
  0
VERTEX
  8
LAYER-1
  6
CONTINUOUS
 62
     7
  5
29E
 10
-2.195774
 20
0.481573
 30
0.0
  0
VERTEX
  8
LAYER-1
  6
CONTINUOUS
 62
     7
  5
29F
 10
-2.191086
 20
0.48074
 30
0.0
  0
VERTEX
  8
LAYER-1
  6
CONTINUOUS
 62
     7
  5
2A0
 10
-2.186396
 20
0.479922
 30
0.0
  0
VERTEX
  8
LAYER-1
  6
CONTINUOUS
 62
     7
  5
2A1
 10
-2.181704
 20
0.479118
 30
0.0
  0
VERTEX
  8
LAYER-1
  6
CONTINUOUS
 62
     7
  5
2A2
 10
-2.177009
 20
0.47833
 30
0.0
  0
VERTEX
  8
LAYER-1
  6
CONTINUOUS
 62
     7
  5
2A3
 10
-2.172312
 20
0.477556
 30
0.0
  0
VERTEX
  8
LAYER-1
  6
CONTINUOUS
 62
     7
  5
2A4
 10
-2.167612
 20
0.476797
 30
0.0
  0
VERTEX
  8
LAYER-1
  6
CONTINUOUS
 62
     7
  5
2A5
 10
-2.16291
 20
0.476054
 30
0.0
  0
VERTEX
  8
LAYER-1
  6
CONTINUOUS
 62
     7
  5
2A6
 10
-2.158205
 20
0.475325
 30
0.0
  0
VERTEX
  8
LAYER-1
  6
CONTINUOUS
 62
     7
  5
2A7
 10
-2.153498
 20
0.474611
 30
0.0
  0
VERTEX
  8
LAYER-1
  6
CONTINUOUS
 62
     7
  5
2A8
 10
-2.148789
 20
0.473912
 30
0.0
  0
VERTEX
  8
LAYER-1
  6
CONTINUOUS
 62
     7
  5
2A9
 10
-2.144077
 20
0.473228
 30
0.0
  0
VERTEX
  8
LAYER-1
  6
CONTINUOUS
 62
     7
  5
2AA
 10
-2.139364
 20
0.472559
 30
0.0
  0
VERTEX
  8
LAYER-1
  6
CONTINUOUS
 62
     7
  5
2AB
 10
-2.134626
 20
0.471901
 30
0.0
  0
VERTEX
  8
LAYER-1
  6
CONTINUOUS
 62
     7
  5
2AC
 10
-2.129908
 20
0.471262
 30
0.0
  0
VERTEX
  8
LAYER-1
  6
CONTINUOUS
 62
     7
  5
2AD
 10
-2.125189
 20
0.470638
 30
0.0
  0
VERTEX
  8
LAYER-1
  6
CONTINUOUS
 62
     7
  5
2AE
 10
-2.120467
 20
0.470029
 30
0.0
  0
VERTEX
  8
LAYER-1
  6
CONTINUOUS
 62
     7
  5
2AF
 10
-2.115744
 20
0.469435
 30
0.0
  0
VERTEX
  8
LAYER-1
  6
CONTINUOUS
 62
     7
  5
2B0
 10
-2.111018
 20
0.468856
 30
0.0
  0
VERTEX
  8
LAYER-1
  6
CONTINUOUS
 62
     7
  5
2B1
 10
-2.106291
 20
0.468292
 30
0.0
  0
VERTEX
  8
LAYER-1
  6
CONTINUOUS
 62
     7
  5
2B2
 10
-2.101562
 20
0.467742
 30
0.0
  0
VERTEX
  8
LAYER-1
  6
CONTINUOUS
 62
     7
  5
2B3
 10
-2.096831
 20
0.467208
 30
0.0
  0
VERTEX
  8
LAYER-1
  6
CONTINUOUS
 62
     7
  5
2B4
 10
-2.092099
 20
0.466689
 30
0.0
  0
VERTEX
  8
LAYER-1
  6
CONTINUOUS
 62
     7
  5
2B5
 10
-2.087365
 20
0.466185
 30
0.0
  0
VERTEX
  8
LAYER-1
  6
CONTINUOUS
 62
     7
  5
2B6
 10
-2.082629
 20
0.465696
 30
0.0
  0
VERTEX
  8
LAYER-1
  6
CONTINUOUS
 62
     7
  5
2B7
 10
-2.077892
 20
0.465222
 30
0.0
  0
VERTEX
  8
LAYER-1
  6
CONTINUOUS
 62
     7
  5
2B8
 10
-2.073131
 20
0.464761
 30
0.0
  0
VERTEX
  8
LAYER-1
  6
CONTINUOUS
 62
     7
  5
2B9
 10
-2.068391
 20
0.464317
 30
0.0
  0
VERTEX
  8
LAYER-1
  6
CONTINUOUS
 62
     7
  5
2BA
 10
-2.06365
 20
0.463888
 30
0.0
  0
VERTEX
  8
LAYER-1
  6
CONTINUOUS
 62
     7
  5
2BB
 10
-2.058907
 20
0.463474
 30
0.0
  0
VERTEX
  8
LAYER-1
  6
CONTINUOUS
 62
     7
  5
2BC
 10
-2.054163
 20
0.463075
 30
0.0
  0
VERTEX
  8
LAYER-1
  6
CONTINUOUS
 62
     7
  5
2BD
 10
-2.049418
 20
0.462691
 30
0.0
  0
VERTEX
  8
LAYER-1
  6
CONTINUOUS
 62
     7
  5
2BE
 10
-2.044671
 20
0.462323
 30
0.0
  0
VERTEX
  8
LAYER-1
  6
CONTINUOUS
 62
     7
  5
2BF
 10
-2.039924
 20
0.461969
 30
0.0
  0
VERTEX
  8
LAYER-1
  6
CONTINUOUS
 62
     7
  5
2C0
 10
-2.035175
 20
0.461631
 30
0.0
  0
VERTEX
  8
LAYER-1
  6
CONTINUOUS
 62
     7
  5
2C1
 10
-2.030425
 20
0.461307
 30
0.0
  0
VERTEX
  8
LAYER-1
  6
CONTINUOUS
 62
     7
  5
2C2
 10
-2.025675
 20
0.460999
 30
0.0
  0
VERTEX
  8
LAYER-1
  6
CONTINUOUS
 62
     7
  5
2C3
 10
-2.020923
 20
0.460705
 30
0.0
  0
VERTEX
  8
LAYER-1
  6
CONTINUOUS
 62
     7
  5
2C4
 10
-2.01617
 20
0.460427
 30
0.0
  0
VERTEX
  8
LAYER-1
  6
CONTINUOUS
 62
     7
  5
2C5
 10
-2.011417
 20
0.460164
 30
0.0
  0
VERTEX
  8
LAYER-1
  6
CONTINUOUS
 62
     7
  5
2C6
 10
-2.00664
 20
0.459915
 30
0.0
  0
VERTEX
  8
LAYER-1
  6
CONTINUOUS
 62
     7
  5
2C7
 10
-2.001885
 20
0.459682
 30
0.0
  0
VERTEX
  8
LAYER-1
  6
CONTINUOUS
 62
     7
  5
2C8
 10
-1.997129
 20
0.459464
 30
0.0
  0
VERTEX
  8
LAYER-1
  6
CONTINUOUS
 62
     7
  5
2C9
 10
-1.992372
 20
0.459261
 30
0.0
  0
VERTEX
  8
LAYER-1
  6
CONTINUOUS
 62
     7
  5
2CA
 10
-1.987615
 20
0.459074
 30
0.0
  0
VERTEX
  8
LAYER-1
  6
CONTINUOUS
 62
     7
  5
2CB
 10
-1.982858
 20
0.458901
 30
0.0
  0
VERTEX
  8
LAYER-1
  6
CONTINUOUS
 62
     7
  5
2CC
 10
-1.9781
 20
0.458744
 30
0.0
  0
VERTEX
  8
LAYER-1
  6
CONTINUOUS
 62
     7
  5
2CD
 10
-1.973341
 20
0.458601
 30
0.0
  0
VERTEX
  8
LAYER-1
  6
CONTINUOUS
 62
     7
  5
2CE
 10
-1.968582
 20
0.458474
 30
0.0
  0
VERTEX
  8
LAYER-1
  6
CONTINUOUS
 62
     7
  5
2CF
 10
-1.963823
 20
0.458362
 30
0.0
  0
VERTEX
  8
LAYER-1
  6
CONTINUOUS
 62
     7
  5
2D0
 10
-1.959063
 20
0.458265
 30
0.0
  0
VERTEX
  8
LAYER-1
  6
CONTINUOUS
 62
     7
  5
2D1
 10
-1.954303
 20
0.458183
 30
0.0
  0
VERTEX
  8
LAYER-1
  6
CONTINUOUS
 62
     7
  5
2D2
 10
-1.949543
 20
0.458116
 30
0.0
  0
VERTEX
  8
LAYER-1
  6
CONTINUOUS
 62
     7
  5
2D3
 10
-1.944759
 20
0.458064
 30
0.0
  0
VERTEX
  8
LAYER-1
  6
CONTINUOUS
 62
     7
  5
2D4
 10
-1.939999
 20
0.458028
 30
0.0
  0
VERTEX
  8
LAYER-1
  6
CONTINUOUS
 62
     7
  5
2D5
 10
-1.935238
 20
0.458006
 30
0.0
  0
VERTEX
  8
LAYER-1
  6
CONTINUOUS
 62
     7
  5
2D6
 10
-1.930866
 20
0.458
 30
0.0
  0
SEQEND
  8
LAYER-1
  6
CONTINUOUS
  5
2D7
  0
LINE
  8
LAYER-1
  6
CONTINUOUS
 62
     7
  5
2D8
 10
2.935
 20
-1.275
 30
0.0
 11
2.935
 21
1.1825
 31
0.0
  0
LINE
  8
LAYER-1
  6
CONTINUOUS
 62
     7
  5
2D9
 10
2.31
 20
0.0875
 30
0.0
 11
2.31
 21
1.1825
 31
0.0
  0
SOLID
  8
LAYER-1
 62
     7
  5
2DA
 10
2.935
 20
1.0575
 30
0.0
 11
3.06
 21
1.090994
 31
0.0
 12
3.06
 22
1.024006
 32
0.0
 13
3.06
 23
1.024006
 33
0.0
  0
LINE
  8
LAYER-1
  6
CONTINUOUS
 62
     7
  5
2DB
 10
2.935
 20
1.0575
 30
0.0
 11
3.235
 21
1.0575
 31
0.0
  0
SOLID
  8
LAYER-1
 62
     7
  5
2DC
 10
2.31
 20
1.0575
 30
0.0
 11
2.185
 21
1.024006
 31
0.0
 12
2.185
 22
1.090994
 32
0.0
 13
2.185
 23
1.090994
 33
0.0
  0
LINE
  8
LAYER-1
  6
CONTINUOUS
 62
     7
  5
2DD
 10
2.31
 20
1.0575
 30
0.0
 11
2.01
 21
1.0575
 31
0.0
  0
TEXT
  8
LAYER-1
 62
     7
  5
2DE
 10
2.469722
 20
0.967222
 30
0.0
 40
0.1
  1
.625"
 41
0.611111
  0
LINE
  8
LAYER-1
  6
CONTINUOUS
 62
     7
  5
2DF
 10
2.935
 20
-1.3375
 30
0.0
 11
2.935
 21
1.5825
 31
0.0
  0
LINE
  8
LAYER-1
  6
CONTINUOUS
 62
     7
  5
2E0
 10
-4.177
 20
0.7075
 30
0.0
 11
-4.177
 21
1.5825
 31
0.0
  0
SOLID
  8
LAYER-1
 62
     7
  5
2E1
 10
2.935
 20
1.4575
 30
0.0
 11
2.81
 21
1.424006
 31
0.0
 12
2.81
 22
1.490994
 32
0.0
 13
2.81
 23
1.490994
 33
0.0
  0
SOLID
  8
LAYER-1
 62
     7
  5
2E2
 10
-4.177
 20
1.4575
 30
0.0
 11
-4.052
 21
1.490994
 31
0.0
 12
-4.052
 22
1.424006
 32
0.0
 13
-4.052
 23
1.424006
 33
0.0
  0
LINE
  8
LAYER-1
  6
CONTINUOUS
 62
     7
  5
2E3
 10
2.935
 20
1.4575
 30
0.0
 11
-4.177
 21
1.4575
 31
0.0
  0
TEXT
  8
LAYER-1
 62
     7
  5
2E4
 10
-0.8085
 20
1.367222
 30
0.0
 40
0.1
  1
7.112"
 41
0.625
  0
LINE
  8
LAYER-1
  6
CONTINUOUS
 62
     7
  5
2E5
 10
2.9975
 20
-2.605
 30
0.0
 11
3.476138
 21
-2.605
 31
0.0
  0
LINE
  8
LAYER-1
  6
CONTINUOUS
 62
     7
  5
2E6
 10
2.8225
 20
-2.28
 30
0.0
 11
3.476138
 21
-2.28
 31
0.0
  0
SOLID
  8
LAYER-1
 62
     7
  5
2E7
 10
3.351138
 20
-2.605
 30
0.0
 11
3.384632
 21
-2.73
 31
0.0
 12
3.317645
 22
-2.73
 32
0.0
 13
3.317645
 23
-2.73
 33
0.0
  0
LINE
  8
LAYER-1
  6
CONTINUOUS
 62
     7
  5
2E8
 10
3.351138
 20
-2.605
 30
0.0
 11
3.351138
 21
-2.905
 31
0.0
  0
SOLID
  8
LAYER-1
 62
     7
  5
2E9
 10
3.351138
 20
-2.28
 30
0.0
 11
3.317645
 21
-2.155
 31
0.0
 12
3.384632
 22
-2.155
 32
0.0
 13
3.384632
 23
-2.155
 33
0.0
  0
LINE
  8
LAYER-1
  6
CONTINUOUS
 62
     7
  5
2EA
 10
3.351138
 20
-2.28
 30
0.0
 11
3.351138
 21
-1.98
 31
0.0
  0
TEXT
  8
LAYER-1
 62
     7
  5
2EB
 10
3.198361
 20
-2.532778
 30
0.0
 40
0.1
  1
.325"
 41
0.611111
  0
LINE
  8
LAYER-1
  6
CONTINUOUS
 62
     7
  5
2EC
 10
2.9975
 20
-2.605
 30
0.0
 11
3.876138
 21
-2.605
 31
0.0
  0
LINE
  8
LAYER-1
  6
CONTINUOUS
 62
     7
  5
2ED
 10
2.9975
 20
-1.505
 30
0.0
 11
3.876138
 21
-1.505
 31
0.0
  0
SOLID
  8
LAYER-1
 62
     7
  5
2EE
 10
3.751138
 20
-2.605
 30
0.0
 11
3.717645
 21
-2.48
 31
0.0
 12
3.784632
 22
-2.48
 32
0.0
 13
3.784632
 23
-2.48
 33
0.0
  0
SOLID
  8
LAYER-1
 62
     7
  5
2EF
 10
3.751138
 20
-1.505
 30
0.0
 11
3.784632
 21
-1.63
 31
0.0
 12
3.717645
 22
-1.63
 32
0.0
 13
3.717645
 23
-1.63
 33
0.0
  0
LINE
  8
LAYER-1
  6
CONTINUOUS
 62
     7
  5
2F0
 10
3.751138
 20
-2.605
 30
0.0
 11
3.751138
 21
-1.505
 31
0.0
  0
TEXT
  8
LAYER-1
 62
     7
  5
2F1
 10
3.563638
 20
-2.145278
 30
0.0
 40
0.1
  1
1.100"
 41
0.625
  0
LINE
  8
LAYER-1
  6
CONTINUOUS
 62
     7
  5
2F2
 10
2.9975
 20
-2.605
 30
0.0
 11
4.276138
 21
-2.605
 31
0.0
  0
LINE
  8
LAYER-1
  6
CONTINUOUS
 62
     7
  5
2F3
 10
2.3725
 20
0.025
 30
0.0
 11
4.276138
 21
0.025
 31
0.0
  0
SOLID
  8
LAYER-1
 62
     7
  5
2F4
 10
4.151138
 20
-2.605
 30
0.0
 11
4.117645
 21
-2.48
 31
0.0
 12
4.184632
 22
-2.48
 32
0.0
 13
4.184632
 23
-2.48
 33
0.0
  0
SOLID
  8
LAYER-1
 62
     7
  5
2F5
 10
4.151138
 20
0.025
 30
0.0
 11
4.184632
 21
-0.1
 31
0.0
 12
4.117645
 22
-0.1
 32
0.0
 13
4.117645
 23
-0.1
 33
0.0
  0
LINE
  8
LAYER-1
  6
CONTINUOUS
 62
     7
  5
2F6
 10
4.151138
 20
-2.605
 30
0.0
 11
4.151138
 21
0.025
 31
0.0
  0
TEXT
  8
LAYER-1
 62
     7
  5
2F7
 10
3.963638
 20
-1.380278
 30
0.0
 40
0.1
  1
2.630"
 41
0.625
  0
LINE
  8
LAYER-1
  6
CONTINUOUS
 62
     7
  5
2F8
 10
2.9975
 20
-2.605
 30
0.0
 11
4.676138
 21
-2.605
 31
0.0
  0
LINE
  8
LAYER-1
  6
CONTINUOUS
 62
     7
  5
2F9
 10
2.9975
 20
0.458057
 30
0.0
 11
4.676138
 21
0.458057
 31
0.0
  0
SOLID
  8
LAYER-1
 62
     7
  5
2FA
 10
4.551138
 20
-2.605
 30
0.0
 11
4.517645
 21
-2.48
 31
0.0
 12
4.584632
 22
-2.48
 32
0.0
 13
4.584632
 23
-2.48
 33
0.0
  0
SOLID
  8
LAYER-1
 62
     7
  5
2FB
 10
4.551138
 20
0.458057
 30
0.0
 11
4.584632
 21
0.333057
 31
0.0
 12
4.517645
 22
0.333057
 32
0.0
 13
4.517645
 23
0.333057
 33
0.0
  0
LINE
  8
LAYER-1
  6
CONTINUOUS
 62
     7
  5
2FC
 10
4.551138
 20
-2.605
 30
0.0
 11
4.551138
 21
0.458057
 31
0.0
  0
TEXT
  8
LAYER-1
 62
     7
  5
2FD
 10
4.363638
 20
-1.163749
 30
0.0
 40
0.1
  1
3.063"
 41
0.625
  0
LINE
  8
LAYER-1
  6
CONTINUOUS
 62
     7
  5
2FE
 10
2.9975
 20
-2.605
 30
0.0
 11
5.076138
 21
-2.605
 31
0.0
  0
LINE
  8
LAYER-1
  6
CONTINUOUS
 62
     7
  5
2FF
 10
-4.1145
 20
0.645
 30
0.0
 11
5.076138
 21
0.645
 31
0.0
  0
SOLID
  8
LAYER-1
 62
     7
  5
300
 10
4.951138
 20
-2.605
 30
0.0
 11
4.917645
 21
-2.48
 31
0.0
 12
4.984632
 22
-2.48
 32
0.0
 13
4.984632
 23
-2.48
 33
0.0
  0
SOLID
  8
LAYER-1
 62
     7
  5
301
 10
4.951138
 20
0.645
 30
0.0
 11
4.984632
 21
0.52
 31
0.0
 12
4.917645
 22
0.52
 32
0.0
 13
4.917645
 23
0.52
 33
0.0
  0
LINE
  8
LAYER-1
  6
CONTINUOUS
 62
     7
  5
302
 10
4.951138
 20
-2.605
 30
0.0
 11
4.951138
 21
0.645
 31
0.0
  0
TEXT
  8
LAYER-1
 62
     7
  5
303
 10
4.763638
 20
-1.070278
 30
0.0
 40
0.1
  1
3.250"
 41
0.625
  0
LINE
  8
LAYER-1
  6
CONTINUOUS
 62
     7
  5
304
 10
2.835
 20
0.55
 30
0.0
 11
2.835
 21
0.8925
 31
0.0
  0
LINE
  8
LAYER-1
  6
CONTINUOUS
 62
     7
  5
305
 10
2.935
 20
0.33
 30
0.0
 11
2.935
 21
0.8925
 31
0.0
  0
SOLID
  8
LAYER-1
 62
     7
  5
306
 10
2.835
 20
0.7675
 30
0.0
 11
2.71
 21
0.734006
 31
0.0
 12
2.71
 22
0.800994
 32
0.0
 13
2.71
 23
0.800994
 33
0.0
  0
LINE
  8
LAYER-1
  6
CONTINUOUS
 62
     7
  5
307
 10
2.835
 20
0.7675
 30
0.0
 11
2.62
 21
0.7675
 31
0.0
  0
SOLID
  8
LAYER-1
 62
     7
  5
308
 10
2.935
 20
0.7675
 30
0.0
 11
3.06
 21
0.800994
 31
0.0
 12
3.06
 22
0.734006
 32
0.0
 13
3.06
 23
0.734006
 33
0.0
  0
LINE
  8
LAYER-1
  6
CONTINUOUS
 62
     7
  5
309
 10
2.935
 20
0.7675
 30
0.0
 11
3.235
 21
0.7675
 31
0.0
  0
TEXT
  8
LAYER-1
 62
     7
  5
30A
 10
2.314444
 20
0.677222
 30
0.0
 40
0.1
  1
.100"
 41
0.611111
  0
LINE
  8
LAYER-1
  6
CONTINUOUS
 62
     7
  5
30B
 10
-3.960494
 20
0.52
 30
0.0
 11
-3.6
 21
0.311869
 31
0.0
  0
LINE
  8
LAYER-1
  6
CONTINUOUS
 62
     7
  5
30C
 10
-3.6
 20
0.311869
 30
0.0
 11
-3.35
 21
0.311869
 31
0.0
  0
SOLID
  8
LAYER-1
 62
     7
  5
30D
 10
-4.393506
 20
0.77
 30
0.0
 11
-4.26911
 21
0.73433
 31
0.0
 12
-4.303611
 22
0.676911
 32
0.0
 13
-4.303611
 23
0.676911
 33
0.0
  0
SOLID
  8
LAYER-1
 62
     7
  5
30E
 10
-3.960494
 20
0.52
 30
0.0
 11
-4.08489
 21
0.55567
 31
0.0
 12
-4.050389
 22
0.613089
 32
0.0
 13
-4.050389
 23
0.613089
 33
0.0
  0
LINE
  8
LAYER-1
  6
CONTINUOUS
 62
     7
  5
30F
 10
-4.393506
 20
0.77
 30
0.0
 11
-3.960494
 21
0.52
 31
0.0
  0
TEXT
  8
LAYER-1
 62
     7
  5
310
 10
-3.35
 20
0.221591
 30
0.0
 40
0.1
  1
» .500"
 41
0.634921
  0
LINE
  8
LAYER-1
  6
CONTINUOUS
 62
     7
  5
311
 10
2.221612
 20
-0.063388
 30
0.0
 11
1.945
 21
-0.34
 31
0.0
  0
LINE
  8
LAYER-1
  6
CONTINUOUS
 62
     7
  5
312
 10
1.945
 20
-0.34
 30
0.0
 11
2.195
 21
-0.34
 31
0.0
  0
SOLID
  8
LAYER-1
 62
     7
  5
313
 10
2.398388
 20
0.113388
 30
0.0
 11
2.333683
 21
0.001316
 31
0.0
 12
2.286316
 22
0.048683
 32
0.0
 13
2.286316
 23
0.048683
 33
0.0
  0
SOLID
  8
LAYER-1
 62
     7
  5
314
 10
2.221612
 20
-0.063388
 30
0.0
 11
2.286316
 21
0.048684
 31
0.0
 12
2.333684
 22
0.001316
 32
0.0
 13
2.333684
 23
0.001316
 33
0.0
  0
LINE
  8
LAYER-1
  6
CONTINUOUS
 62
     7
  5
315
 10
2.398388
 20
0.113388
 30
0.0
 11
2.221612
 21
-0.063388
 31
0.0
  0
TEXT
  8
LAYER-1
 62
     7
  5
316
 10
2.195
 20
-0.430278
 30
0.0
 40
0.1
  1
» .250"
 41
0.634921
  0
SOLID
  8
LAYER-1
 62
     7
  5
317
 10
-2.268096
 20
0.496399
 30
0.0
 11
-2.272613
 21
0.62573
 31
0.0
 12
-2.207342
 22
0.610661
 32
0.0
 13
-2.207342
 23
0.610661
 33
0.0
  0
LINE
  8
LAYER-1
  6
CONTINUOUS
 62
     7
  5
318
 10
-1.930866
 20
1.958
 30
0.0
 11
-2.268096
 21
0.496399
 31
0.0
  0
TEXT
  8
LAYER-1
 62
     7
  5
319
 10
-2.356426
 20
1.136922
 30
0.0
 40
0.1
  1
R 1.500"
 41
0.642361
  0
SOLID
  8
LAYER-1
 62
     7
  5
31A
 10
1.25247
 20
-2.382652
 30
0.0
 11
1.272714
 21
-2.254836
 31
0.0
 12
1.33391
 22
-2.282082
 32
0.0
 13
1.33391
 23
-2.282082
 33
0.0
  0
SOLID
  8
LAYER-1
 62
     7
  5
31B
 10
2.314098
 20
-2.605
 30
0.0
 11
2.280605
 21
-2.48
 31
0.0
 12
2.347592
 22
-2.48
 32
0.0
 13
2.347592
 23
-2.48
 33
0.0
  0
ARC
  8
LAYER-1
  6
CONTINUOUS
 62
     7
  5
31C
 10
1.76
 20
-2.605
 30
0.0
 40
0.554098
 50
0.0
 51
156.341892
  0
TEXT
  8
LAYER-1
 62
     7
  5
31D
 10
1.734703
 20
-2.152946
 30
0.0
 40
0.1
  1
156%%d
 41
0.694445
  0
TEXT
  8
LAYER-1
 62
     7
  5
31E
 10
-1.730555
 20
-0.661111
 30
0.0
 40
0.222222
  1
.375 Thick Plate
 41
0.56875
  0
LINE
  8
LAYER-1
  6
CONTINUOUS
 62
     7
  5
31F
 10
2.935
 20
-2.7625
 30
0.0
 11
2.935
 21
-3.335
 31
0.0
  0
LINE
  8
LAYER-1
  6
CONTINUOUS
 62
     7
  5
320
 10
2.76
 20
-2.3425
 30
0.0
 11
2.76
 21
-3.335
 31
0.0
  0
SOLID
  8
LAYER-1
 62
     7
  5
321
 10
2.935
 20
-3.21
 30
0.0
 11
3.06
 21
-3.176506
 31
0.0
 12
3.06
 22
-3.243494
 32
0.0
 13
3.06
 23
-3.243494
 33
0.0
  0
LINE
  8
LAYER-1
  6
CONTINUOUS
 62
     7
  5
322
 10
2.935
 20
-3.21
 30
0.0
 11
3.34
 21
-3.21
 31
0.0
  0
SOLID
  8
LAYER-1
 62
     7
  5
323
 10
2.76
 20
-3.21
 30
0.0
 11
2.635
 21
-3.243494
 31
0.0
 12
2.635
 22
-3.176506
 32
0.0
 13
2.635
 23
-3.176506
 33
0.0
  0
LINE
  8
LAYER-1
  6
CONTINUOUS
 62
     7
  5
324
 10
2.76
 20
-3.21
 30
0.0
 11
2.46
 21
-3.21
 31
0.0
  0
TEXT
  8
LAYER-1
 62
     7
  5
325
 10
3.34
 20
-3.300278
 30
0.0
 40
0.1
  1
.175"
 41
0.611111
  0
LINE
  8
LAYER-1
  6
CONTINUOUS
 62
     7
  5
326
 10
2.663747
 20
-2.200248
 30
0.0
 11
2.06
 21
-1.7
 31
0.0
  0
LINE
  8
LAYER-1
  6
CONTINUOUS
 62
     7
  5
327
 10
2.06
 20
-1.7
 30
0.0
 11
2.31
 21
-1.7
 31
0.0
  0
SOLID
  8
LAYER-1
 62
     7
  5
328
 10
2.856253
 20
-2.359752
 30
0.0
 11
2.738968
 21
-2.305061
 31
0.0
 12
2.782026
 22
-2.253746
 32
0.0
 13
2.782026
 23
-2.253746
 33
0.0
  0
SOLID
  8
LAYER-1
 62
     7
  5
329
 10
2.663747
 20
-2.200248
 30
0.0
 11
2.781032
 21
-2.254939
 31
0.0
 12
2.737973
 22
-2.306254
 32
0.0
 13
2.737973
 23
-2.306254
 33
0.0
  0
LINE
  8
LAYER-1
  6
CONTINUOUS
 62
     7
  5
32A
 10
2.856253
 20
-2.359752
 30
0.0
 11
2.663747
 21
-2.200248
 31
0.0
  0
TEXT
  8
LAYER-1
 62
     7
  5
32B
 10
2.31
 20
-1.790278
 30
0.0
 40
0.1
  1
» .250"
 41
0.634921
  0
TEXT
  8
LAYER-1
 62
     7
  5
32C
 10
-3.902778
 20
-3.180556
 30
0.0
 40
0.222222
  1
Mounting Plate
 41
0.59375
  0
TEXT
  8
LAYER-1
 62
     7
  5
32D
 10
-3.205313
 20
0.058648
 30
0.0
 40
0.1
  1
.501
 41
0.659785
  0
TEXT
  8
LAYER-1
 62
     7
  5
32E
 10
-3.902778
 20
-3.576994
 30
0.0
 40
0.155556
  1
Mat'l: 6061 Aluminum Plate
 41
0.642719
  0
LINE
  8
LAYER-1
  6
CONTINUOUS
 62
     7
  5
32F
 10
-4.357115
 20
1.217327
 30
0.0
 11
-4.603427
 21
2.0
 31
0.0
  0
LINE
  8
LAYER-1
  6
CONTINUOUS
 62
     7
  5
330
 10
-4.603427
 20
2.0
 30
0.0
 11
-4.353427
 21
2.0
 31
0.0
  0
SOLID
  8
LAYER-1
 62
     7
  5
331
 10
-4.357115
 20
1.217327
 30
0.0
 11
-4.288539
 21
1.107582
 31
0.0
 12
-4.352599
 22
1.087997
 32
0.0
 13
-4.352599
 23
1.087997
 33
0.0
  0
LINE
  8
LAYER-1
  6
CONTINUOUS
 62
     7
  5
332
 10
-4.177
 20
0.645
 30
0.0
 11
-4.357115
 21
1.217327
 31
0.0
  0
TEXT
  8
LAYER-1
 62
     7
  5
333
 10
-4.353427
 20
1.909722
 30
0.0
 40
0.1
  1
R .600"
 41
0.634921
  0
ENDSEC
  0
EOF
