  0
SECTION
  2
HEADER
  9
$ACADVER
  1
AC1009
  9
$INSBASE
 10
0.0
 20
0.0
 30
0.0
  9
$EXTMIN
 10
-5.166667
 20
-4.131944
 30
0.0
  9
$EXTMAX
 10
5.166667
 20
4.131944
 30
0.0
  9
$LIMMIN
 10
0.0
 20
0.0
  9
$LIMMAX
 10
0.0
 20
0.0
  9
$ORTHOMODE
 70
     0
  9
$REGENMODE
 70
     1
  9
$FILLMODE
 70
     1
  9
$QTEXTMODE
 70
     0
  9
$MIRRTEXT
 70
     1
  9
$DRAGMODE
 70
     2
  9
$LTSCALE
 40
1.0
  9
$OSMODE
 70
     0
  9
$ATTMODE
 70
     1
  9
$TEXTSIZE
 40
0.2
  9
$TRACEWID
 40
0.05
  9
$TEXTSTYLE
  7
STANDARD
  9
$CLAYER
  8
0
  9
$CELTYPE
  6
CONTINUOUS
  9
$CECOLOR
 62
   256
  9
$DIMSCALE
 40
1.0
  9
$DIMASZ
 40
0.18
  9
$DIMEXO
 40
0.0625
  9
$DIMDLI
 40
0.38
  9
$DIMRND
 40
0.0
  9
$DIMDLE
 40
0.0
  9
$DIMEXE
 40
0.18
  9
$DIMTP
 40
0.0
  9
$DIMTM
 40
0.0
  9
$DIMTXT
 40
0.18
  9
$DIMCEN
 40
0.09
  9
$DIMTSZ
 40
0.0
  9
$DIMTOL
 70
     0
  9
$DIMLIM
 70
     0
  9
$DIMTIH
 70
     1
  9
$DIMTOH
 70
     1
  9
$DIMSE1
 70
     0
  9
$DIMSE2
 70
     0
  9
$DIMTAD
 70
     0
  9
$DIMZIN
 70
     0
  9
$DIMBLK
  1

  9
$DIMASO
 70
     1
  9
$DIMSHO
 70
     1
  9
$DIMPOST
  1

  9
$DIMAPOST
  1

  9
$DIMALT
 70
     0
  9
$DIMALTD
 70
     2
  9
$DIMALTF
 40
25.4
  9
$DIMLFAC
 40
1.0
  9
$DIMTOFL
 70
     0
  9
$DIMTVP
 40
0.0
  9
$DIMTIX
 70
     0
  9
$DIMSOXD
 70
     0
  9
$DIMSAH
 70
     0
  9
$DIMBLK1
  1

  9
$DIMBLK2
  1

  9
$DIMSTYLE
  2
STANDARD
  9
$DIMCLRD
 70
     0
  9
$DIMCLRE
 70
     0
  9
$DIMCLRT
 70
     0
  9
$DIMTFAC
 40
1.0
  9
$DIMGAP
 40
0.09
  9
$LUNITS
 70
     2
  9
$LUPREC
 70
     4
  9
$AXISMODE
 70
     0
  9
$AXISUNIT
 10
0.0
 20
0.0
  9
$SKETCHINC
 40
0.1
  9
$FILLETRAD
 40
0.0
  9
$AUNITS
 70
     0
  9
$AUPREC
 70
     0
  9
$MENU
  1
acad
  9
$ELEVATION
 40
0.0
  9
$PELEVATION
 40
0.0
  9
$THICKNESS
 40
0.0
  9
$LIMCHECK
 70
     0
  9
$BLIPMODE
 70
     1
  9
$CHAMFERA
 40
0.0
  9
$CHAMFERB
 40
0.0
  9
$SKPOLY
 70
     0
  9
$TDCREATE
 40
2451806.704212963
  9
$TDUPDATE
 40
2451806.704212963
  9
$TDINDWG
 40
0.0000000000
  9
$TDUSRTIMER
 40
0.0000000000
  9
$USRTIMER
 70
     1
  9
$ANGBASE
 50
0.0
  9
$ANGDIR
 70
     0
  9
$PDMODE
 70
     0
  9
$PDSIZE
 40
0.0
  9
$PLINEWID
 40
0.0
  9
$COORDS
 70
     0
  9
$SPLFRAME
 70
     0
  9
$SPLINETYPE
 70
     6
  9
$SPLINESEGS
 70
     8
  9
$ATTDIA
 70
     0
  9
$ATTREQ
 70
     1
  9
$HANDLING
 70
     1
  9
$HANDSEED
  5
335
  9
$SURFTAB1
 70
     6
  9
$SURFTAB2
 70
     6
  9
$SURFTYPE
 70
     6
  9
$SURFU
 70
     6
  9
$SURFV
 70
     6
  9
$UCSNAME
  2

  9
$UCSORG
 10
0.0
 20
0.0
 30
0.0
  9
$UCSXDIR
 10
1.0
 20
0.0
 30
0.0
  9
$UCSYDIR
 10
0.0
 20
1.0
 30
0.0
  9
$PUCSNAME
  2

  9
$PUCSORG
 10
0.0
 20
0.0
 30
0.0
  9
$PUCSXDIR
 10
1.0
 20
0.0
 30
0.0
  9
$PUCSYDIR
 10
0.0
 20
1.0
 30
0.0
  9
$USERI1
 70
     0
  9
$USERI2
 70
     0
  9
$USERI3
 70
     0
  9
$USERI4
 70
     0
  9
$USERI5
 70
     0
  9
$USERR1
 40
0.0
  9
$USERR2
 40
0.0
  9
$USERR3
 40
0.0
  9
$USERR4
 40
0.0
  9
$USERR5
 40
0.0
  9
$WORLDVIEW
 70
     1
  9
$SHADEDGE
 70
     3
  9
$SHADEDIF
 70
    70
  9
$TILEMODE
 70
     1
  9
$MAXACTVP
 70
    16
  9
$PINSBASE
 10
0.0
 20
0.0
 30
0.0
  9
$PLIMCHECK
 70
     0
  9
$PEXTMIN
 10
1.000000E+20
 20
1.000000E+20
 30
1.000000E+20
  9
$PEXTMAX
 10
-1.000000E+20
 20
-1.000000E+20
 30
-1.000000E+20
  9
$PLIMMIN
 10
0.0
 20
0.0
  9
$PLIMMAX
 10
12.0
 20
9.0
  9
$UNITMODE
 70
     0
  9
$VISRETAIN
 70
     0
  9
$PLINEGEN
 70
     1
  9
$PSLTSCALE
 70
     0
  9
$TREEDEPTH
 70
  3020
  9
$DWGCODEPAGE
  3
dos850
  0
ENDSEC
  0
SECTION
  2
TABLES
  0
TABLE
  2
VPORT
 70
     1
  0
VPORT
  2
*ACTIVE
 70
     0
 10
0.0
 20
0.0
 11
1.0
 21
1.0
 12
0.0
 22
0.0
 13
0.0
 23
0.0
 14
1.0
 24
1.0
 15
0.0
 25
0.0
 16
0.0
 26
0.0
 36
1.0
 17
0.0
 27
0.0
 37
0.0
 40
8.0
 41
0.688564
 42
50.0
 43
0.0
 44
0.0
 50
0.0
 51
0.0
 71
     0
 72
   100
 73
     1
 74
     1
 75
     0
 76
     0
 77
     0
 78
     0
  0
ENDTAB
  0
TABLE
  2
LTYPE
 70
    11
  0
LTYPE
  2
CONTINUOUS
 70
     0
  3
Solid line
 72
    65
 73
     0
 40
0.0
  0
LTYPE
  2
MCDASH01
 70
     0
  3

 72
    65
 73
     2
 40
0.083328
 49
0.041656
 49
-0.041672
  0
LTYPE
  2
MCDASH02
 70
     0
  3

 72
    65
 73
     2
 40
0.138885
 49
0.097214
 49
-0.041672
  0
LTYPE
  2
MCDASH03
 70
     0
  3

 72
    65
 73
     2
 40
0.25
 49
0.208328
 49
-0.041672
  0
LTYPE
  2
MCDASH04
 70
     0
  3

 72
    65
 73
     2
 40
0.305542
 49
0.263885
 49
-0.041656
  0
LTYPE
  2
MCDASH05
 70
     0
  3

 72
    65
 73
     2
 40
0.041656
 49
0.013885
 49
-0.027771
  0
LTYPE
  2
MCDASH06
 70
     0
  3

 72
    65
 73
     4
 40
0.208328
 49
0.125
 49
-0.041656
 49
0.013885
 49
-0.027786
  0
LTYPE
  2
MCDASH07
 70
     0
  3

 72
    65
 73
     6
 40
0.375
 49
0.125
 49
-0.041656
 49
0.125
 49
-0.041672
 49
0.013885
 49
-0.027786
  0
LTYPE
  2
MCDASH08
 70
     0
  3

 72
    65
 73
     6
 40
0.25
 49
0.125
 49
-0.041656
 49
0.013885
 49
-0.027786
 49
0.013885
 49
-0.027786
  0
LTYPE
  2
MCDASH09
 70
     0
  3

 72
    65
 73
     4
 40
1.0
 49
0.75
 49
-0.055557
 49
0.138885
 49
-0.055557
  0
LTYPE
  2
MCDASH10
 70
     0
  3

 72
    65
 73
     6
 40
1.1875
 49
0.75
 49
-0.055557
 49
0.138885
 49
-0.055557
 49
0.125
 49
-0.0625
  0
ENDTAB
  0
TABLE
  2
LAYER
 70
     2
  0
LAYER
  2
0
 70
     0
 62
     7
  6
CONTINUOUS
  0
LAYER
  2
LAYER-1
 70
    64
 62
     7
  6
CONTINUOUS
  0
ENDTAB
  0
TABLE
  2
STYLE
 70
     1
  0
STYLE
  2
STANDARD
 70
     0
 40
0.0
 41
1.0
 50
0.0
 71
     0
 42
0.0
  3
txt
  4

  0
ENDTAB
  0
TABLE
  2
VIEW
 70
     0
  0
ENDTAB
  0
TABLE
  2
UCS
 70
     0
  0
ENDTAB
  0
TABLE
  2
APPID
 70
     1
  0
APPID
  2
ACAD
 70
     0
  0
ENDTAB
  0
TABLE
  2
DIMSTYLE
 70
     1
  0
DIMSTYLE
  2
STANDARD
 70
     0
  3

  4

  5

  6

  7

 40
1.0
 41
0.18
 42
0.0625
 43
0.38
 44
0.18
 45
0.0
 46
0.0
 47
0.0
 48
0.0
140
0.18
141
0.09
142
0.0
143
25.4
144
1.0
145
0.0
146
1.0
147
0.09
 71
     0
 72
     0
 73
     1
 74
     1
 75
     0
 76
     0
 77
     0
 78
     0
170
     0
171
     2
172
     0
173
     0
174
     0
175
     0
176
     0
177
     0
178
     0
  0
ENDTAB
  0
ENDSEC
  0
SECTION
  2
BLOCKS
  0
ENDSEC
  0
SECTION
  2
ENTITIES
  0
POLYLINE
  8
LAYER-1
  6
CONTINUOUS
 62
     7
  5
2B
 66
     1
 10
0.0
 20
0.0
 30
0.0
 40
0.028
 41
0.028
  0
VERTEX
  8
LAYER-1
  6
CONTINUOUS
 62
     7
  5
2C
 10
-4.75
 20
1.25
 30
0.0
  0
VERTEX
  8
LAYER-1
  6
CONTINUOUS
 62
     7
  5
2D
 10
-4.75
 20
1.75
 30
0.0
  0
SEQEND
  8
LAYER-1
  6
CONTINUOUS
  5
2E
  0
POLYLINE
  8
LAYER-1
  6
CONTINUOUS
 62
     7
  5
2F
 66
     1
 10
0.0
 20
0.0
 30
0.0
 40
0.028
 41
0.028
  0
VERTEX
  8
LAYER-1
  6
CONTINUOUS
 62
     7
  5
30
 10
3.25
 20
1.25
 30
0.0
  0
VERTEX
  8
LAYER-1
  6
CONTINUOUS
 62
     7
  5
31
 10
-4.75
 20
1.25
 30
0.0
  0
SEQEND
  8
LAYER-1
  6
CONTINUOUS
  5
32
  0
POLYLINE
  8
LAYER-1
  6
CONTINUOUS
 62
     7
  5
33
 66
     1
 10
0.0
 20
0.0
 30
0.0
 40
0.028
 41
0.028
  0
VERTEX
  8
LAYER-1
  6
CONTINUOUS
 62
     7
  5
34
 10
3.25
 20
1.75
 30
0.0
  0
VERTEX
  8
LAYER-1
  6
CONTINUOUS
 62
     7
  5
35
 10
-4.75
 20
1.75
 30
0.0
  0
SEQEND
  8
LAYER-1
  6
CONTINUOUS
  5
36
  0
POLYLINE
  8
LAYER-1
  6
CONTINUOUS
 62
     7
  5
37
 66
     1
 10
0.0
 20
0.0
 30
0.0
 40
0.028
 41
0.028
  0
VERTEX
  8
LAYER-1
  6
CONTINUOUS
 62
     7
  5
38
 10
3.25
 20
1.75
 30
0.0
  0
VERTEX
  8
LAYER-1
  6
CONTINUOUS
 62
     7
  5
39
 10
3.25
 20
1.25
 30
0.0
  0
SEQEND
  8
LAYER-1
  6
CONTINUOUS
  5
3A
  0
POLYLINE
  8
LAYER-1
  6
CONTINUOUS
 62
     7
  5
3B
 66
     1
 10
0.0
 20
0.0
 30
0.0
 40
0.028
 41
0.028
  0
VERTEX
  8
LAYER-1
  6
CONTINUOUS
 62
     7
  5
3C
 10
3.25
 20
1.6875
 30
0.0
  0
VERTEX
  8
LAYER-1
  6
CONTINUOUS
 62
     7
  5
3D
 10
4.75
 20
1.6875
 30
0.0
  0
SEQEND
  8
LAYER-1
  6
CONTINUOUS
  5
3E
  0
POLYLINE
  8
LAYER-1
  6
CONTINUOUS
 62
     7
  5
3F
 66
     1
 10
0.0
 20
0.0
 30
0.0
 40
0.028
 41
0.028
  0
VERTEX
  8
LAYER-1
  6
CONTINUOUS
 62
     7
  5
40
 10
3.25
 20
1.3125
 30
0.0
  0
VERTEX
  8
LAYER-1
  6
CONTINUOUS
 62
     7
  5
41
 10
4.75
 20
1.3125
 30
0.0
  0
SEQEND
  8
LAYER-1
  6
CONTINUOUS
  5
42
  0
POLYLINE
  8
LAYER-1
  6
CONTINUOUS
 62
     7
  5
43
 66
     1
 10
0.0
 20
0.0
 30
0.0
 40
0.028
 41
0.028
  0
VERTEX
  8
LAYER-1
  6
CONTINUOUS
 62
     7
  5
44
 10
4.75
 20
1.6875
 30
0.0
  0
VERTEX
  8
LAYER-1
  6
CONTINUOUS
 62
     7
  5
45
 10
4.75
 20
1.3125
 30
0.0
  0
SEQEND
  8
LAYER-1
  6
CONTINUOUS
  5
46
  0
LINE
  8
LAYER-1
  6
CONTINUOUS
 62
     7
  5
47
 10
4.75
 20
1.875
 30
0.0
 11
4.75
 21
2.375
 31
0.0
  0
LINE
  8
LAYER-1
  6
CONTINUOUS
 62
     7
  5
48
 10
3.25
 20
2.0625
 30
0.0
 11
3.25
 21
2.375
 31
0.0
  0
SOLID
  8
LAYER-1
 62
     7
  5
49
 10
4.75
 20
2.25
 30
0.0
 11
4.625
 21
2.216506
 31
0.0
 12
4.625
 22
2.283494
 32
0.0
 13
4.625
 23
2.283494
 33
0.0
  0
SOLID
  8
LAYER-1
 62
     7
  5
4A
 10
3.25
 20
2.25
 30
0.0
 11
3.375
 21
2.283494
 31
0.0
 12
3.375
 22
2.216506
 32
0.0
 13
3.375
 23
2.216506
 33
0.0
  0
LINE
  8
LAYER-1
  6
CONTINUOUS
 62
     7
  5
4B
 10
4.75
 20
2.25
 30
0.0
 11
3.25
 21
2.25
 31
0.0
  0
TEXT
  8
LAYER-1
 62
     7
  5
4C
 10
3.881944
 20
2.159722
 30
0.0
 40
0.1
  1
1.5"
 41
0.590278
  0
LINE
  8
LAYER-1
  6
CONTINUOUS
 62
     7
  5
4D
 10
4.75
 20
1.875
 30
0.0
 11
4.75
 21
2.775
 31
0.0
  0
LINE
  8
LAYER-1
  6
CONTINUOUS
 62
     7
  5
4E
 10
-4.75
 20
1.9375
 30
0.0
 11
-4.75
 21
2.775
 31
0.0
  0
SOLID
  8
LAYER-1
 62
     7
  5
4F
 10
4.75
 20
2.65
 30
0.0
 11
4.625
 21
2.616506
 31
0.0
 12
4.625
 22
2.683494
 32
0.0
 13
4.625
 23
2.683494
 33
0.0
  0
SOLID
  8
LAYER-1
 62
     7
  5
50
 10
-4.75
 20
2.65
 30
0.0
 11
-4.625
 21
2.683494
 31
0.0
 12
-4.625
 22
2.616506
 32
0.0
 13
-4.625
 23
2.616506
 33
0.0
  0
LINE
  8
LAYER-1
  6
CONTINUOUS
 62
     7
  5
51
 10
4.75
 20
2.65
 30
0.0
 11
-4.75
 21
2.65
 31
0.0
  0
TEXT
  8
LAYER-1
 62
     7
  5
52
 10
-0.118055
 20
2.559722
 30
0.0
 40
0.1
  1
9.5"
 41
0.590278
  0
LINE
  8
LAYER-1
  6
CONTINUOUS
 62
     7
  5
53
 10
4.0625
 20
1.6875
 30
0.0
 11
4.25
 21
1.6875
 31
0.0
  0
LINE
  8
LAYER-1
  6
CONTINUOUS
 62
     7
  5
54
 10
4.0625
 20
1.3125
 30
0.0
 11
4.25
 21
1.3125
 31
0.0
  0
SOLID
  8
LAYER-1
 62
     7
  5
55
 10
4.125
 20
1.6875
 30
0.0
 11
4.091506
 21
1.8125
 31
0.0
 12
4.158494
 22
1.8125
 32
0.0
 13
4.158494
 23
1.8125
 33
0.0
  0
LINE
  8
LAYER-1
  6
CONTINUOUS
 62
     7
  5
56
 10
4.125
 20
1.6875
 30
0.0
 11
4.125
 21
1.9875
 31
0.0
  0
SOLID
  8
LAYER-1
 62
     7
  5
57
 10
4.125
 20
1.3125
 30
0.0
 11
4.158494
 21
1.1875
 31
0.0
 12
4.091506
 22
1.1875
 32
0.0
 13
4.091506
 23
1.1875
 33
0.0
  0
LINE
  8
LAYER-1
  6
CONTINUOUS
 62
     7
  5
58
 10
4.125
 20
1.3125
 30
0.0
 11
4.125
 21
1.0125
 31
0.0
  0
TEXT
  8
LAYER-1
 62
     7
  5
59
 10
3.972222
 20
1.444444
 30
0.0
 40
0.1
  1
.375"
 41
0.611111
  0
TEXT
  8
LAYER-1
 62
     7
  5
5A
 10
-2.591667
 20
3.111111
 30
0.0
 40
0.222222
  1
1/2-13 Grade 8 Commercial All Thread
 41
0.597917
  0
LINE
  8
LAYER-1
  6
CONTINUOUS
 62
     7
  5
5B
 10
-4.75
 20
1.75
 30
0.0
 11
-4.625
 21
1.25
 31
0.0
  0
LINE
  8
LAYER-1
  6
CONTINUOUS
 62
     7
  5
5C
 10
-4.65
 20
1.75
 30
0.0
 11
-4.525
 21
1.25
 31
0.0
  0
LINE
  8
LAYER-1
  6
CONTINUOUS
 62
     7
  5
5D
 10
-4.55
 20
1.75
 30
0.0
 11
-4.425
 21
1.25
 31
0.0
  0
LINE
  8
LAYER-1
  6
CONTINUOUS
 62
     7
  5
5E
 10
-4.45
 20
1.75
 30
0.0
 11
-4.325
 21
1.25
 31
0.0
  0
LINE
  8
LAYER-1
  6
CONTINUOUS
 62
     7
  5
5F
 10
-4.35
 20
1.75
 30
0.0
 11
-4.225
 21
1.25
 31
0.0
  0
LINE
  8
LAYER-1
  6
CONTINUOUS
 62
     7
  5
60
 10
-4.25
 20
1.75
 30
0.0
 11
-4.125
 21
1.25
 31
0.0
  0
LINE
  8
LAYER-1
  6
CONTINUOUS
 62
     7
  5
61
 10
-4.15
 20
1.75
 30
0.0
 11
-4.025
 21
1.25
 31
0.0
  0
LINE
  8
LAYER-1
  6
CONTINUOUS
 62
     7
  5
62
 10
-4.05
 20
1.75
 30
0.0
 11
-3.925
 21
1.25
 31
0.0
  0
LINE
  8
LAYER-1
  6
CONTINUOUS
 62
     7
  5
63
 10
-3.95
 20
1.75
 30
0.0
 11
-3.825
 21
1.25
 31
0.0
  0
LINE
  8
LAYER-1
  6
CONTINUOUS
 62
     7
  5
64
 10
-3.85
 20
1.75
 30
0.0
 11
-3.725
 21
1.25
 31
0.0
  0
LINE
  8
LAYER-1
  6
CONTINUOUS
 62
     7
  5
65
 10
-3.75
 20
1.75
 30
0.0
 11
-3.625
 21
1.25
 31
0.0
  0
LINE
  8
LAYER-1
  6
CONTINUOUS
 62
     7
  5
66
 10
-3.65
 20
1.75
 30
0.0
 11
-3.525
 21
1.25
 31
0.0
  0
LINE
  8
LAYER-1
  6
CONTINUOUS
 62
     7
  5
67
 10
-3.55
 20
1.75
 30
0.0
 11
-3.425
 21
1.25
 31
0.0
  0
LINE
  8
LAYER-1
  6
CONTINUOUS
 62
     7
  5
68
 10
-3.45
 20
1.75
 30
0.0
 11
-3.325
 21
1.25
 31
0.0
  0
LINE
  8
LAYER-1
  6
CONTINUOUS
 62
     7
  5
69
 10
-3.35
 20
1.75
 30
0.0
 11
-3.225
 21
1.25
 31
0.0
  0
LINE
  8
LAYER-1
  6
CONTINUOUS
 62
     7
  5
6A
 10
-3.25
 20
1.75
 30
0.0
 11
-3.125
 21
1.25
 31
0.0
  0
LINE
  8
LAYER-1
  6
CONTINUOUS
 62
     7
  5
6B
 10
-3.15
 20
1.75
 30
0.0
 11
-3.025
 21
1.25
 31
0.0
  0
LINE
  8
LAYER-1
  6
CONTINUOUS
 62
     7
  5
6C
 10
-3.05
 20
1.75
 30
0.0
 11
-2.925
 21
1.25
 31
0.0
  0
LINE
  8
LAYER-1
  6
CONTINUOUS
 62
     7
  5
6D
 10
-2.95
 20
1.75
 30
0.0
 11
-2.825
 21
1.25
 31
0.0
  0
LINE
  8
LAYER-1
  6
CONTINUOUS
 62
     7
  5
6E
 10
-2.85
 20
1.75
 30
0.0
 11
-2.725
 21
1.25
 31
0.0
  0
LINE
  8
LAYER-1
  6
CONTINUOUS
 62
     7
  5
6F
 10
-2.75
 20
1.75
 30
0.0
 11
-2.625
 21
1.25
 31
0.0
  0
LINE
  8
LAYER-1
  6
CONTINUOUS
 62
     7
  5
70
 10
-2.65
 20
1.75
 30
0.0
 11
-2.525
 21
1.25
 31
0.0
  0
LINE
  8
LAYER-1
  6
CONTINUOUS
 62
     7
  5
71
 10
-2.55
 20
1.75
 30
0.0
 11
-2.425
 21
1.25
 31
0.0
  0
LINE
  8
LAYER-1
  6
CONTINUOUS
 62
     7
  5
72
 10
-2.45
 20
1.75
 30
0.0
 11
-2.325
 21
1.25
 31
0.0
  0
LINE
  8
LAYER-1
  6
CONTINUOUS
 62
     7
  5
73
 10
-2.35
 20
1.75
 30
0.0
 11
-2.225
 21
1.25
 31
0.0
  0
LINE
  8
LAYER-1
  6
CONTINUOUS
 62
     7
  5
74
 10
-2.25
 20
1.75
 30
0.0
 11
-2.125
 21
1.25
 31
0.0
  0
LINE
  8
LAYER-1
  6
CONTINUOUS
 62
     7
  5
75
 10
-2.15
 20
1.75
 30
0.0
 11
-2.025
 21
1.25
 31
0.0
  0
LINE
  8
LAYER-1
  6
CONTINUOUS
 62
     7
  5
76
 10
-2.05
 20
1.75
 30
0.0
 11
-1.925
 21
1.25
 31
0.0
  0
LINE
  8
LAYER-1
  6
CONTINUOUS
 62
     7
  5
77
 10
-1.95
 20
1.75
 30
0.0
 11
-1.825
 21
1.25
 31
0.0
  0
LINE
  8
LAYER-1
  6
CONTINUOUS
 62
     7
  5
78
 10
-1.85
 20
1.75
 30
0.0
 11
-1.725
 21
1.25
 31
0.0
  0
LINE
  8
LAYER-1
  6
CONTINUOUS
 62
     7
  5
79
 10
-1.75
 20
1.75
 30
0.0
 11
-1.625
 21
1.25
 31
0.0
  0
LINE
  8
LAYER-1
  6
CONTINUOUS
 62
     7
  5
7A
 10
-1.65
 20
1.75
 30
0.0
 11
-1.525
 21
1.25
 31
0.0
  0
LINE
  8
LAYER-1
  6
CONTINUOUS
 62
     7
  5
7B
 10
-1.55
 20
1.75
 30
0.0
 11
-1.425
 21
1.25
 31
0.0
  0
LINE
  8
LAYER-1
  6
CONTINUOUS
 62
     7
  5
7C
 10
-1.45
 20
1.75
 30
0.0
 11
-1.325
 21
1.25
 31
0.0
  0
LINE
  8
LAYER-1
  6
CONTINUOUS
 62
     7
  5
7D
 10
-1.35
 20
1.75
 30
0.0
 11
-1.225
 21
1.25
 31
0.0
  0
LINE
  8
LAYER-1
  6
CONTINUOUS
 62
     7
  5
7E
 10
-1.25
 20
1.75
 30
0.0
 11
-1.125
 21
1.25
 31
0.0
  0
LINE
  8
LAYER-1
  6
CONTINUOUS
 62
     7
  5
7F
 10
-1.15
 20
1.75
 30
0.0
 11
-1.025
 21
1.25
 31
0.0
  0
LINE
  8
LAYER-1
  6
CONTINUOUS
 62
     7
  5
80
 10
-1.05
 20
1.75
 30
0.0
 11
-0.925
 21
1.25
 31
0.0
  0
LINE
  8
LAYER-1
  6
CONTINUOUS
 62
     7
  5
81
 10
-0.95
 20
1.75
 30
0.0
 11
-0.825
 21
1.25
 31
0.0
  0
LINE
  8
LAYER-1
  6
CONTINUOUS
 62
     7
  5
82
 10
-0.85
 20
1.75
 30
0.0
 11
-0.725
 21
1.25
 31
0.0
  0
LINE
  8
LAYER-1
  6
CONTINUOUS
 62
     7
  5
83
 10
-0.75
 20
1.75
 30
0.0
 11
-0.625
 21
1.25
 31
0.0
  0
LINE
  8
LAYER-1
  6
CONTINUOUS
 62
     7
  5
84
 10
-0.65
 20
1.75
 30
0.0
 11
-0.525
 21
1.25
 31
0.0
  0
LINE
  8
LAYER-1
  6
CONTINUOUS
 62
     7
  5
85
 10
-0.55
 20
1.75
 30
0.0
 11
-0.425
 21
1.25
 31
0.0
  0
LINE
  8
LAYER-1
  6
CONTINUOUS
 62
     7
  5
86
 10
-0.45
 20
1.75
 30
0.0
 11
-0.325
 21
1.25
 31
0.0
  0
LINE
  8
LAYER-1
  6
CONTINUOUS
 62
     7
  5
87
 10
-0.35
 20
1.75
 30
0.0
 11
-0.225
 21
1.25
 31
0.0
  0
LINE
  8
LAYER-1
  6
CONTINUOUS
 62
     7
  5
88
 10
-0.25
 20
1.75
 30
0.0
 11
-0.125
 21
1.25
 31
0.0
  0
LINE
  8
LAYER-1
  6
CONTINUOUS
 62
     7
  5
89
 10
-0.15
 20
1.75
 30
0.0
 11
-0.025
 21
1.25
 31
0.0
  0
LINE
  8
LAYER-1
  6
CONTINUOUS
 62
     7
  5
8A
 10
-0.05
 20
1.75
 30
0.0
 11
0.075
 21
1.25
 31
0.0
  0
LINE
  8
LAYER-1
  6
CONTINUOUS
 62
     7
  5
8B
 10
0.05
 20
1.75
 30
0.0
 11
0.175
 21
1.25
 31
0.0
  0
LINE
  8
LAYER-1
  6
CONTINUOUS
 62
     7
  5
8C
 10
0.15
 20
1.75
 30
0.0
 11
0.275
 21
1.25
 31
0.0
  0
LINE
  8
LAYER-1
  6
CONTINUOUS
 62
     7
  5
8D
 10
0.25
 20
1.75
 30
0.0
 11
0.375
 21
1.25
 31
0.0
  0
LINE
  8
LAYER-1
  6
CONTINUOUS
 62
     7
  5
8E
 10
0.35
 20
1.75
 30
0.0
 11
0.475
 21
1.25
 31
0.0
  0
LINE
  8
LAYER-1
  6
CONTINUOUS
 62
     7
  5
8F
 10
0.45
 20
1.75
 30
0.0
 11
0.575
 21
1.25
 31
0.0
  0
LINE
  8
LAYER-1
  6
CONTINUOUS
 62
     7
  5
90
 10
0.55
 20
1.75
 30
0.0
 11
0.675
 21
1.25
 31
0.0
  0
LINE
  8
LAYER-1
  6
CONTINUOUS
 62
     7
  5
91
 10
0.65
 20
1.75
 30
0.0
 11
0.775
 21
1.25
 31
0.0
  0
LINE
  8
LAYER-1
  6
CONTINUOUS
 62
     7
  5
92
 10
0.75
 20
1.75
 30
0.0
 11
0.875
 21
1.25
 31
0.0
  0
LINE
  8
LAYER-1
  6
CONTINUOUS
 62
     7
  5
93
 10
0.85
 20
1.75
 30
0.0
 11
0.975
 21
1.25
 31
0.0
  0
LINE
  8
LAYER-1
  6
CONTINUOUS
 62
     7
  5
94
 10
0.95
 20
1.75
 30
0.0
 11
1.075
 21
1.25
 31
0.0
  0
LINE
  8
LAYER-1
  6
CONTINUOUS
 62
     7
  5
95
 10
1.05
 20
1.75
 30
0.0
 11
1.175
 21
1.25
 31
0.0
  0
LINE
  8
LAYER-1
  6
CONTINUOUS
 62
     7
  5
96
 10
1.15
 20
1.75
 30
0.0
 11
1.275
 21
1.25
 31
0.0
  0
LINE
  8
LAYER-1
  6
CONTINUOUS
 62
     7
  5
97
 10
1.25
 20
1.75
 30
0.0
 11
1.375
 21
1.25
 31
0.0
  0
LINE
  8
LAYER-1
  6
CONTINUOUS
 62
     7
  5
98
 10
1.35
 20
1.75
 30
0.0
 11
1.475
 21
1.25
 31
0.0
  0
LINE
  8
LAYER-1
  6
CONTINUOUS
 62
     7
  5
99
 10
1.45
 20
1.75
 30
0.0
 11
1.575
 21
1.25
 31
0.0
  0
LINE
  8
LAYER-1
  6
CONTINUOUS
 62
     7
  5
9A
 10
1.55
 20
1.75
 30
0.0
 11
1.675
 21
1.25
 31
0.0
  0
LINE
  8
LAYER-1
  6
CONTINUOUS
 62
     7
  5
9B
 10
1.65
 20
1.75
 30
0.0
 11
1.775
 21
1.25
 31
0.0
  0
LINE
  8
LAYER-1
  6
CONTINUOUS
 62
     7
  5
9C
 10
1.75
 20
1.75
 30
0.0
 11
1.875
 21
1.25
 31
0.0
  0
LINE
  8
LAYER-1
  6
CONTINUOUS
 62
     7
  5
9D
 10
1.85
 20
1.75
 30
0.0
 11
1.975
 21
1.25
 31
0.0
  0
LINE
  8
LAYER-1
  6
CONTINUOUS
 62
     7
  5
9E
 10
1.95
 20
1.75
 30
0.0
 11
2.075
 21
1.25
 31
0.0
  0
LINE
  8
LAYER-1
  6
CONTINUOUS
 62
     7
  5
9F
 10
2.05
 20
1.75
 30
0.0
 11
2.175
 21
1.25
 31
0.0
  0
LINE
  8
LAYER-1
  6
CONTINUOUS
 62
     7
  5
A0
 10
2.15
 20
1.75
 30
0.0
 11
2.275
 21
1.25
 31
0.0
  0
LINE
  8
LAYER-1
  6
CONTINUOUS
 62
     7
  5
A1
 10
2.25
 20
1.75
 30
0.0
 11
2.375
 21
1.25
 31
0.0
  0
LINE
  8
LAYER-1
  6
CONTINUOUS
 62
     7
  5
A2
 10
2.35
 20
1.75
 30
0.0
 11
2.475
 21
1.25
 31
0.0
  0
LINE
  8
LAYER-1
  6
CONTINUOUS
 62
     7
  5
A3
 10
2.45
 20
1.75
 30
0.0
 11
2.575
 21
1.25
 31
0.0
  0
LINE
  8
LAYER-1
  6
CONTINUOUS
 62
     7
  5
A4
 10
2.55
 20
1.75
 30
0.0
 11
2.675
 21
1.25
 31
0.0
  0
LINE
  8
LAYER-1
  6
CONTINUOUS
 62
     7
  5
A5
 10
2.65
 20
1.75
 30
0.0
 11
2.775
 21
1.25
 31
0.0
  0
LINE
  8
LAYER-1
  6
CONTINUOUS
 62
     7
  5
A6
 10
2.75
 20
1.75
 30
0.0
 11
2.875
 21
1.25
 31
0.0
  0
LINE
  8
LAYER-1
  6
CONTINUOUS
 62
     7
  5
A7
 10
2.85
 20
1.75
 30
0.0
 11
2.975
 21
1.25
 31
0.0
  0
LINE
  8
LAYER-1
  6
CONTINUOUS
 62
     7
  5
A8
 10
2.95
 20
1.75
 30
0.0
 11
3.075
 21
1.25
 31
0.0
  0
LINE
  8
LAYER-1
  6
CONTINUOUS
 62
     7
  5
A9
 10
3.05
 20
1.75
 30
0.0
 11
3.175
 21
1.25
 31
0.0
  0
LINE
  8
LAYER-1
  6
CONTINUOUS
 62
     7
  5
AA
 10
3.15
 20
1.75
 30
0.0
 11
3.275
 21
1.25
 31
0.0
  0
POLYLINE
  8
LAYER-1
  6
CONTINUOUS
 62
     7
  5
AB
 66
     1
 10
0.0
 20
0.0
 30
0.0
 40
0.028
 41
0.028
  0
VERTEX
  8
LAYER-1
  6
CONTINUOUS
 62
     7
  5
AC
 10
-4.75
 20
-0.875
 30
0.0
  0
VERTEX
  8
LAYER-1
  6
CONTINUOUS
 62
     7
  5
AD
 10
-4.75
 20
0.375
 30
0.0
  0
SEQEND
  8
LAYER-1
  6
CONTINUOUS
  5
AE
  0
POLYLINE
  8
LAYER-1
  6
CONTINUOUS
 62
     7
  5
AF
 66
     1
 10
0.0
 20
0.0
 30
0.0
 40
0.028
 41
0.028
  0
VERTEX
  8
LAYER-1
  6
CONTINUOUS
 62
     7
  5
B0
 10
4.625
 20
-0.875
 30
0.0
  0
VERTEX
  8
LAYER-1
  6
CONTINUOUS
 62
     7
  5
B1
 10
-4.75
 20
-0.875
 30
0.0
  0
SEQEND
  8
LAYER-1
  6
CONTINUOUS
  5
B2
  0
POLYLINE
  8
LAYER-1
  6
CONTINUOUS
 62
     7
  5
B3
 66
     1
 10
0.0
 20
0.0
 30
0.0
 40
0.028
 41
0.028
  0
VERTEX
  8
LAYER-1
  6
CONTINUOUS
 62
     7
  5
B4
 10
4.75
 20
0.25
 30
0.0
  0
VERTEX
  8
LAYER-1
  6
CONTINUOUS
 62
     7
  5
B5
 10
4.75
 20
-0.75
 30
0.0
  0
SEQEND
  8
LAYER-1
  6
CONTINUOUS
  5
B6
  0
POLYLINE
  8
LAYER-1
  6
CONTINUOUS
 62
     7
  5
B7
 66
     1
 10
0.0
 20
0.0
 30
0.0
 40
0.028
 41
0.028
  0
VERTEX
  8
LAYER-1
  6
CONTINUOUS
 62
     7
  5
B8
 10
-4.75
 20
0.375
 30
0.0
  0
VERTEX
  8
LAYER-1
  6
CONTINUOUS
 62
     7
  5
B9
 10
4.625
 20
0.375
 30
0.0
  0
SEQEND
  8
LAYER-1
  6
CONTINUOUS
  5
BA
  0
POLYLINE
  8
LAYER-1
  6
CONTINUOUS
 62
     7
  5
BB
 66
     1
 10
0.0
 20
0.0
 30
0.0
 40
0.028
 41
0.028
  0
VERTEX
  8
LAYER-1
  6
CONTINUOUS
 62
     7
  5
BC
 10
4.625
 20
0.375
 30
0.0
  0
VERTEX
  8
LAYER-1
  6
CONTINUOUS
 62
     7
  5
BD
 10
4.625
 20
-0.875
 30
0.0
  0
SEQEND
  8
LAYER-1
  6
CONTINUOUS
  5
BE
  0
POLYLINE
  8
LAYER-1
  6
MCDASH01
 62
     7
  5
BF
 66
     1
 10
0.0
 20
0.0
 30
0.0
 70
     5
 75
     5
  0
VERTEX
  8
LAYER-1
  6
MCDASH01
 62
     7
  5
C0
 10
-4.75
 20
-0.047
 30
0.0
  0
VERTEX
  8
LAYER-1
  6
MCDASH01
 62
     7
  5
C1
 10
-3.25
 20
-0.047
 30
0.0
  0
VERTEX
  8
LAYER-1
  6
MCDASH01
 62
     7
  5
C2
 10
-3.25
 20
-0.453
 30
0.0
  0
VERTEX
  8
LAYER-1
  6
MCDASH01
 62
     7
  5
C3
 10
-4.75
 20
-0.453
 30
0.0
  0
SEQEND
  8
LAYER-1
  6
MCDASH01
  5
C4
  0
LINE
  8
LAYER-1
  6
MCDASH01
 62
     7
  5
C5
 10
-3.25
 20
-0.047
 30
0.0
 11
-3.125
 21
-0.25
 31
0.0
  0
LINE
  8
LAYER-1
  6
MCDASH01
 62
     7
  5
C6
 10
-3.125
 20
-0.25
 30
0.0
 11
-3.25
 21
-0.453
 31
0.0
  0
LINE
  8
LAYER-1
  6
MCDASH01
 62
     7
  5
C7
 10
-0.07475
 20
0.375
 30
0.0
 11
-0.07475
 21
0.101
 31
0.0
  0
LINE
  8
LAYER-1
  6
MCDASH01
 62
     7
  5
C8
 10
0.17475
 20
0.375
 30
0.0
 11
0.17475
 21
0.101
 31
0.0
  0
POLYLINE
  8
LAYER-1
  6
CONTINUOUS
 62
     7
  5
C9
 66
     1
 10
0.0
 20
0.0
 30
0.0
 40
0.028
 41
0.028
  0
VERTEX
  8
LAYER-1
  6
CONTINUOUS
 62
     7
  5
CA
 10
-0.699845
 20
-0.375
 30
0.0
  0
VERTEX
  8
LAYER-1
  6
CONTINUOUS
 62
     7
  5
CB
 10
-0.699845
 20
-0.125
 30
0.0
  0
SEQEND
  8
LAYER-1
  6
CONTINUOUS
  5
CC
  0
POLYLINE
  8
LAYER-1
  6
CONTINUOUS
 62
     7
  5
CD
 66
     1
 10
0.0
 20
0.0
 30
0.0
 40
0.028
 41
0.028
  0
VERTEX
  8
LAYER-1
  6
CONTINUOUS
 62
     7
  5
CE
 10
1.55
 20
-0.601
 30
0.0
  0
VERTEX
  8
LAYER-1
  6
CONTINUOUS
 62
     7
  5
CF
 10
-0.45
 20
-0.601
 30
0.0
  0
SEQEND
  8
LAYER-1
  6
CONTINUOUS
  5
D0
  0
LINE
  8
LAYER-1
  6
CONTINUOUS
 62
     7
  5
D1
 10
-0.5
 20
-0.595949
 30
0.0
 11
-0.5
 21
-0.595949
 31
0.0
  0
POLYLINE
  8
LAYER-1
  6
CONTINUOUS
 62
     7
  5
D2
 66
     1
 10
0.0
 20
0.0
 30
0.0
 40
0.028
 41
0.028
  0
VERTEX
  8
LAYER-1
  6
CONTINUOUS
 62
     7
  5
D3
 10
1.8
 20
-0.149
 30
0.0
  0
VERTEX
  8
LAYER-1
  6
CONTINUOUS
 62
     7
  5
D4
 10
1.8
 20
-0.351
 30
0.0
  0
SEQEND
  8
LAYER-1
  6
CONTINUOUS
  5
D5
  0
POLYLINE
  8
LAYER-1
  6
CONTINUOUS
 62
     7
  5
D6
 66
     1
 10
0.0
 20
0.0
 30
0.0
 40
0.028
 41
0.028
  0
VERTEX
  8
LAYER-1
  6
CONTINUOUS
 62
     7
  5
D7
 10
-0.45
 20
0.101
 30
0.0
  0
VERTEX
  8
LAYER-1
  6
CONTINUOUS
 62
     7
  5
D8
 10
1.55
 20
0.101
 30
0.0
  0
SEQEND
  8
LAYER-1
  6
CONTINUOUS
  5
D9
  0
POLYLINE
  8
LAYER-1
  6
CONTINUOUS
 62
     7
  5
DA
 66
     1
 10
0.0
 20
0.0
 30
0.0
 70
     4
 40
0.028
 41
0.028
 75
     5
  0
VERTEX
  8
LAYER-1
  6
CONTINUOUS
 62
     7
  5
DB
 10
-0.45
 20
0.101
 30
0.0
  0
VERTEX
  8
LAYER-1
  6
CONTINUOUS
 62
     7
  5
DC
 10
-0.453006
 20
0.100982
 30
0.0
  0
VERTEX
  8
LAYER-1
  6
CONTINUOUS
 62
     7
  5
DD
 10
-0.456076
 20
0.100926
 30
0.0
  0
VERTEX
  8
LAYER-1
  6
CONTINUOUS
 62
     7
  5
DE
 10
-0.459142
 20
0.100833
 30
0.0
  0
VERTEX
  8
LAYER-1
  6
CONTINUOUS
 62
     7
  5
DF
 10
-0.462206
 20
0.100702
 30
0.0
  0
VERTEX
  8
LAYER-1
  6
CONTINUOUS
 62
     7
  5
E0
 10
-0.465272
 20
0.100533
 30
0.0
  0
VERTEX
  8
LAYER-1
  6
CONTINUOUS
 62
     7
  5
E1
 10
-0.468332
 20
0.100327
 30
0.0
  0
VERTEX
  8
LAYER-1
  6
CONTINUOUS
 62
     7
  5
E2
 10
-0.471393
 20
0.100083
 30
0.0
  0
VERTEX
  8
LAYER-1
  6
CONTINUOUS
 62
     7
  5
E3
 10
-0.474448
 20
0.099802
 30
0.0
  0
VERTEX
  8
LAYER-1
  6
CONTINUOUS
 62
     7
  5
E4
 10
-0.477498
 20
0.099483
 30
0.0
  0
VERTEX
  8
LAYER-1
  6
CONTINUOUS
 62
     7
  5
E5
 10
-0.480548
 20
0.099127
 30
0.0
  0
VERTEX
  8
LAYER-1
  6
CONTINUOUS
 62
     7
  5
E6
 10
-0.48359
 20
0.098734
 30
0.0
  0
VERTEX
  8
LAYER-1
  6
CONTINUOUS
 62
     7
  5
E7
 10
-0.486626
 20
0.098303
 30
0.0
  0
VERTEX
  8
LAYER-1
  6
CONTINUOUS
 62
     7
  5
E8
 10
-0.489661
 20
0.097834
 30
0.0
  0
VERTEX
  8
LAYER-1
  6
CONTINUOUS
 62
     7
  5
E9
 10
-0.492686
 20
0.097329
 30
0.0
  0
VERTEX
  8
LAYER-1
  6
CONTINUOUS
 62
     7
  5
EA
 10
-0.495709
 20
0.096787
 30
0.0
  0
VERTEX
  8
LAYER-1
  6
CONTINUOUS
 62
     7
  5
EB
 10
-0.49872
 20
0.096207
 30
0.0
  0
VERTEX
  8
LAYER-1
  6
CONTINUOUS
 62
     7
  5
EC
 10
-0.501725
 20
0.095591
 30
0.0
  0
VERTEX
  8
LAYER-1
  6
CONTINUOUS
 62
     7
  5
ED
 10
-0.504725
 20
0.094938
 30
0.0
  0
VERTEX
  8
LAYER-1
  6
CONTINUOUS
 62
     7
  5
EE
 10
-0.507714
 20
0.094248
 30
0.0
  0
VERTEX
  8
LAYER-1
  6
CONTINUOUS
 62
     7
  5
EF
 10
-0.510694
 20
0.093522
 30
0.0
  0
VERTEX
  8
LAYER-1
  6
CONTINUOUS
 62
     7
  5
F0
 10
-0.513668
 20
0.092758
 30
0.0
  0
VERTEX
  8
LAYER-1
  6
CONTINUOUS
 62
     7
  5
F1
 10
-0.516629
 20
0.091959
 30
0.0
  0
VERTEX
  8
LAYER-1
  6
CONTINUOUS
 62
     7
  5
F2
 10
-0.519583
 20
0.091122
 30
0.0
  0
VERTEX
  8
LAYER-1
  6
CONTINUOUS
 62
     7
  5
F3
 10
-0.522524
 20
0.090251
 30
0.0
  0
VERTEX
  8
LAYER-1
  6
CONTINUOUS
 62
     7
  5
F4
 10
-0.525454
 20
0.089343
 30
0.0
  0
VERTEX
  8
LAYER-1
  6
CONTINUOUS
 62
     7
  5
F5
 10
-0.528375
 20
0.088399
 30
0.0
  0
VERTEX
  8
LAYER-1
  6
CONTINUOUS
 62
     7
  5
F6
 10
-0.531282
 20
0.087419
 30
0.0
  0
VERTEX
  8
LAYER-1
  6
CONTINUOUS
 62
     7
  5
F7
 10
-0.534176
 20
0.086405
 30
0.0
  0
VERTEX
  8
LAYER-1
  6
CONTINUOUS
 62
     7
  5
F8
 10
-0.537061
 20
0.085353
 30
0.0
  0
VERTEX
  8
LAYER-1
  6
CONTINUOUS
 62
     7
  5
F9
 10
-0.53993
 20
0.084267
 30
0.0
  0
VERTEX
  8
LAYER-1
  6
CONTINUOUS
 62
     7
  5
FA
 10
-0.542788
 20
0.083145
 30
0.0
  0
VERTEX
  8
LAYER-1
  6
CONTINUOUS
 62
     7
  5
FB
 10
-0.545629
 20
0.08199
 30
0.0
  0
VERTEX
  8
LAYER-1
  6
CONTINUOUS
 62
     7
  5
FC
 10
-0.548455
 20
0.080799
 30
0.0
  0
VERTEX
  8
LAYER-1
  6
CONTINUOUS
 62
     7
  5
FD
 10
-0.551271
 20
0.079573
 30
0.0
  0
VERTEX
  8
LAYER-1
  6
CONTINUOUS
 62
     7
  5
FE
 10
-0.554067
 20
0.078313
 30
0.0
  0
VERTEX
  8
LAYER-1
  6
CONTINUOUS
 62
     7
  5
FF
 10
-0.556848
 20
0.07702
 30
0.0
  0
VERTEX
  8
LAYER-1
  6
CONTINUOUS
 62
     7
  5
100
 10
-0.559616
 20
0.07569
 30
0.0
  0
VERTEX
  8
LAYER-1
  6
CONTINUOUS
 62
     7
  5
101
 10
-0.562364
 20
0.074329
 30
0.0
  0
VERTEX
  8
LAYER-1
  6
CONTINUOUS
 62
     7
  5
102
 10
-0.565099
 20
0.072932
 30
0.0
  0
VERTEX
  8
LAYER-1
  6
CONTINUOUS
 62
     7
  5
103
 10
-0.567813
 20
0.071503
 30
0.0
  0
VERTEX
  8
LAYER-1
  6
CONTINUOUS
 62
     7
  5
104
 10
-0.570509
 20
0.070041
 30
0.0
  0
VERTEX
  8
LAYER-1
  6
CONTINUOUS
 62
     7
  5
105
 10
-0.57319
 20
0.068544
 30
0.0
  0
VERTEX
  8
LAYER-1
  6
CONTINUOUS
 62
     7
  5
106
 10
-0.57585
 20
0.067017
 30
0.0
  0
VERTEX
  8
LAYER-1
  6
CONTINUOUS
 62
     7
  5
107
 10
-0.57849
 20
0.065457
 30
0.0
  0
VERTEX
  8
LAYER-1
  6
CONTINUOUS
 62
     7
  5
108
 10
-0.581114
 20
0.063862
 30
0.0
  0
VERTEX
  8
LAYER-1
  6
CONTINUOUS
 62
     7
  5
109
 10
-0.583716
 20
0.062238
 30
0.0
  0
VERTEX
  8
LAYER-1
  6
CONTINUOUS
 62
     7
  5
10A
 10
-0.586301
 20
0.06058
 30
0.0
  0
VERTEX
  8
LAYER-1
  6
CONTINUOUS
 62
     7
  5
10B
 10
-0.588861
 20
0.058892
 30
0.0
  0
VERTEX
  8
LAYER-1
  6
CONTINUOUS
 62
     7
  5
10C
 10
-0.591401
 20
0.057173
 30
0.0
  0
VERTEX
  8
LAYER-1
  6
CONTINUOUS
 62
     7
  5
10D
 10
-0.593923
 20
0.05542
 30
0.0
  0
VERTEX
  8
LAYER-1
  6
CONTINUOUS
 62
     7
  5
10E
 10
-0.59642
 20
0.053639
 30
0.0
  0
VERTEX
  8
LAYER-1
  6
CONTINUOUS
 62
     7
  5
10F
 10
-0.598895
 20
0.051828
 30
0.0
  0
VERTEX
  8
LAYER-1
  6
CONTINUOUS
 62
     7
  5
110
 10
-0.60135
 20
0.049984
 30
0.0
  0
VERTEX
  8
LAYER-1
  6
CONTINUOUS
 62
     7
  5
111
 10
-0.60378
 20
0.048112
 30
0.0
  0
VERTEX
  8
LAYER-1
  6
CONTINUOUS
 62
     7
  5
112
 10
-0.606189
 20
0.046208
 30
0.0
  0
VERTEX
  8
LAYER-1
  6
CONTINUOUS
 62
     7
  5
113
 10
-0.608572
 20
0.044277
 30
0.0
  0
VERTEX
  8
LAYER-1
  6
CONTINUOUS
 62
     7
  5
114
 10
-0.610931
 20
0.042317
 30
0.0
  0
VERTEX
  8
LAYER-1
  6
CONTINUOUS
 62
     7
  5
115
 10
-0.613269
 20
0.040326
 30
0.0
  0
VERTEX
  8
LAYER-1
  6
CONTINUOUS
 62
     7
  5
116
 10
-0.615579
 20
0.038309
 30
0.0
  0
VERTEX
  8
LAYER-1
  6
CONTINUOUS
 62
     7
  5
117
 10
-0.617865
 20
0.036263
 30
0.0
  0
VERTEX
  8
LAYER-1
  6
CONTINUOUS
 62
     7
  5
118
 10
-0.620128
 20
0.034187
 30
0.0
  0
VERTEX
  8
LAYER-1
  6
CONTINUOUS
 62
     7
  5
119
 10
-0.622362
 20
0.032086
 30
0.0
  0
VERTEX
  8
LAYER-1
  6
CONTINUOUS
 62
     7
  5
11A
 10
-0.624573
 20
0.029955
 30
0.0
  0
VERTEX
  8
LAYER-1
  6
CONTINUOUS
 62
     7
  5
11B
 10
-0.626756
 20
0.0278
 30
0.0
  0
VERTEX
  8
LAYER-1
  6
CONTINUOUS
 62
     7
  5
11C
 10
-0.628913
 20
0.025617
 30
0.0
  0
VERTEX
  8
LAYER-1
  6
CONTINUOUS
 62
     7
  5
11D
 10
-0.631044
 20
0.023406
 30
0.0
  0
VERTEX
  8
LAYER-1
  6
CONTINUOUS
 62
     7
  5
11E
 10
-0.633146
 20
0.021172
 30
0.0
  0
VERTEX
  8
LAYER-1
  6
CONTINUOUS
 62
     7
  5
11F
 10
-0.63522
 20
0.018913
 30
0.0
  0
VERTEX
  8
LAYER-1
  6
CONTINUOUS
 62
     7
  5
120
 10
-0.637268
 20
0.016625
 30
0.0
  0
VERTEX
  8
LAYER-1
  6
CONTINUOUS
 62
     7
  5
121
 10
-0.639286
 20
0.014315
 30
0.0
  0
VERTEX
  8
LAYER-1
  6
CONTINUOUS
 62
     7
  5
122
 10
-0.641278
 20
0.011978
 30
0.0
  0
VERTEX
  8
LAYER-1
  6
CONTINUOUS
 62
     7
  5
123
 10
-0.643239
 20
0.009619
 30
0.0
  0
VERTEX
  8
LAYER-1
  6
CONTINUOUS
 62
     7
  5
124
 10
-0.64517
 20
0.007237
 30
0.0
  0
VERTEX
  8
LAYER-1
  6
CONTINUOUS
 62
     7
  5
125
 10
-0.647074
 20
0.004828
 30
0.0
  0
VERTEX
  8
LAYER-1
  6
CONTINUOUS
 62
     7
  5
126
 10
-0.648947
 20
0.002399
 30
0.0
  0
VERTEX
  8
LAYER-1
  6
CONTINUOUS
 62
     7
  5
127
 10
-0.650789
 20
-0.000053
 30
0.0
  0
VERTEX
  8
LAYER-1
  6
CONTINUOUS
 62
     7
  5
128
 10
-0.652604
 20
-0.002531
 30
0.0
  0
VERTEX
  8
LAYER-1
  6
CONTINUOUS
 62
     7
  5
129
 10
-0.654385
 20
-0.005027
 30
0.0
  0
VERTEX
  8
LAYER-1
  6
CONTINUOUS
 62
     7
  5
12A
 10
-0.656138
 20
-0.007549
 30
0.0
  0
VERTEX
  8
LAYER-1
  6
CONTINUOUS
 62
     7
  5
12B
 10
-0.657858
 20
-0.010088
 30
0.0
  0
VERTEX
  8
LAYER-1
  6
CONTINUOUS
 62
     7
  5
12C
 10
-0.659546
 20
-0.012649
 30
0.0
  0
VERTEX
  8
LAYER-1
  6
CONTINUOUS
 62
     7
  5
12D
 10
-0.661205
 20
-0.015233
 30
0.0
  0
VERTEX
  8
LAYER-1
  6
CONTINUOUS
 62
     7
  5
12E
 10
-0.66283
 20
-0.017834
 30
0.0
  0
VERTEX
  8
LAYER-1
  6
CONTINUOUS
 62
     7
  5
12F
 10
-0.664423
 20
-0.020454
 30
0.0
  0
VERTEX
  8
LAYER-1
  6
CONTINUOUS
 62
     7
  5
130
 10
-0.665986
 20
-0.023098
 30
0.0
  0
VERTEX
  8
LAYER-1
  6
CONTINUOUS
 62
     7
  5
131
 10
-0.667515
 20
-0.025757
 30
0.0
  0
VERTEX
  8
LAYER-1
  6
CONTINUOUS
 62
     7
  5
132
 10
-0.669012
 20
-0.028438
 30
0.0
  0
VERTEX
  8
LAYER-1
  6
CONTINUOUS
 62
     7
  5
133
 10
-0.670474
 20
-0.031134
 30
0.0
  0
VERTEX
  8
LAYER-1
  6
CONTINUOUS
 62
     7
  5
134
 10
-0.671904
 20
-0.033847
 30
0.0
  0
VERTEX
  8
LAYER-1
  6
CONTINUOUS
 62
     7
  5
135
 10
-0.673301
 20
-0.036582
 30
0.0
  0
VERTEX
  8
LAYER-1
  6
CONTINUOUS
 62
     7
  5
136
 10
-0.674663
 20
-0.039329
 30
0.0
  0
VERTEX
  8
LAYER-1
  6
CONTINUOUS
 62
     7
  5
137
 10
-0.675992
 20
-0.042094
 30
0.0
  0
VERTEX
  8
LAYER-1
  6
CONTINUOUS
 62
     7
  5
138
 10
-0.677288
 20
-0.044878
 30
0.0
  0
VERTEX
  8
LAYER-1
  6
CONTINUOUS
 62
     7
  5
139
 10
-0.678548
 20
-0.047674
 30
0.0
  0
VERTEX
  8
LAYER-1
  6
CONTINUOUS
 62
     7
  5
13A
 10
-0.679775
 20
-0.050489
 30
0.0
  0
VERTEX
  8
LAYER-1
  6
CONTINUOUS
 62
     7
  5
13B
 10
-0.680966
 20
-0.053315
 30
0.0
  0
VERTEX
  8
LAYER-1
  6
CONTINUOUS
 62
     7
  5
13C
 10
-0.682123
 20
-0.056155
 30
0.0
  0
VERTEX
  8
LAYER-1
  6
CONTINUOUS
 62
     7
  5
13D
 10
-0.683246
 20
-0.059014
 30
0.0
  0
VERTEX
  8
LAYER-1
  6
CONTINUOUS
 62
     7
  5
13E
 10
-0.684332
 20
-0.061882
 30
0.0
  0
VERTEX
  8
LAYER-1
  6
CONTINUOUS
 62
     7
  5
13F
 10
-0.685383
 20
-0.064763
 30
0.0
  0
VERTEX
  8
LAYER-1
  6
CONTINUOUS
 62
     7
  5
140
 10
-0.6864
 20
-0.06766
 30
0.0
  0
VERTEX
  8
LAYER-1
  6
CONTINUOUS
 62
     7
  5
141
 10
-0.68738
 20
-0.070567
 30
0.0
  0
VERTEX
  8
LAYER-1
  6
CONTINUOUS
 62
     7
  5
142
 10
-0.688325
 20
-0.073488
 30
0.0
  0
VERTEX
  8
LAYER-1
  6
CONTINUOUS
 62
     7
  5
143
 10
-0.689233
 20
-0.076418
 30
0.0
  0
VERTEX
  8
LAYER-1
  6
CONTINUOUS
 62
     7
  5
144
 10
-0.690106
 20
-0.079358
 30
0.0
  0
VERTEX
  8
LAYER-1
  6
CONTINUOUS
 62
     7
  5
145
 10
-0.690943
 20
-0.082312
 30
0.0
  0
VERTEX
  8
LAYER-1
  6
CONTINUOUS
 62
     7
  5
146
 10
-0.691743
 20
-0.085273
 30
0.0
  0
VERTEX
  8
LAYER-1
  6
CONTINUOUS
 62
     7
  5
147
 10
-0.692506
 20
-0.088244
 30
0.0
  0
VERTEX
  8
LAYER-1
  6
CONTINUOUS
 62
     7
  5
148
 10
-0.693234
 20
-0.091227
 30
0.0
  0
VERTEX
  8
LAYER-1
  6
CONTINUOUS
 62
     7
  5
149
 10
-0.693924
 20
-0.094215
 30
0.0
  0
VERTEX
  8
LAYER-1
  6
CONTINUOUS
 62
     7
  5
14A
 10
-0.694579
 20
-0.097215
 30
0.0
  0
VERTEX
  8
LAYER-1
  6
CONTINUOUS
 62
     7
  5
14B
 10
-0.695196
 20
-0.10022
 30
0.0
  0
VERTEX
  8
LAYER-1
  6
CONTINUOUS
 62
     7
  5
14C
 10
-0.695775
 20
-0.103232
 30
0.0
  0
VERTEX
  8
LAYER-1
  6
CONTINUOUS
 62
     7
  5
14D
 10
-0.696319
 20
-0.106254
 30
0.0
  0
VERTEX
  8
LAYER-1
  6
CONTINUOUS
 62
     7
  5
14E
 10
-0.696825
 20
-0.109279
 30
0.0
  0
VERTEX
  8
LAYER-1
  6
CONTINUOUS
 62
     7
  5
14F
 10
-0.697294
 20
-0.11231
 30
0.0
  0
VERTEX
  8
LAYER-1
  6
CONTINUOUS
 62
     7
  5
150
 10
-0.697725
 20
-0.11535
 30
0.0
  0
VERTEX
  8
LAYER-1
  6
CONTINUOUS
 62
     7
  5
151
 10
-0.69812
 20
-0.118392
 30
0.0
  0
VERTEX
  8
LAYER-1
  6
CONTINUOUS
 62
     7
  5
152
 10
-0.698477
 20
-0.121442
 30
0.0
  0
VERTEX
  8
LAYER-1
  6
CONTINUOUS
 62
     7
  5
153
 10
-0.698796
 20
-0.124492
 30
0.0
  0
VERTEX
  8
LAYER-1
  6
CONTINUOUS
 62
     7
  5
154
 10
-0.699078
 20
-0.127546
 30
0.0
  0
VERTEX
  8
LAYER-1
  6
CONTINUOUS
 62
     7
  5
155
 10
-0.699323
 20
-0.130607
 30
0.0
  0
VERTEX
  8
LAYER-1
  6
CONTINUOUS
 62
     7
  5
156
 10
-0.69953
 20
-0.133667
 30
0.0
  0
VERTEX
  8
LAYER-1
  6
CONTINUOUS
 62
     7
  5
157
 10
-0.699699
 20
-0.136729
 30
0.0
  0
VERTEX
  8
LAYER-1
  6
CONTINUOUS
 62
     7
  5
158
 10
-0.699831
 20
-0.139797
 30
0.0
  0
VERTEX
  8
LAYER-1
  6
CONTINUOUS
 62
     7
  5
159
 10
-0.699925
 20
-0.142863
 30
0.0
  0
VERTEX
  8
LAYER-1
  6
CONTINUOUS
 62
     7
  5
15A
 10
-0.699981
 20
-0.145933
 30
0.0
  0
VERTEX
  8
LAYER-1
  6
CONTINUOUS
 62
     7
  5
15B
 10
-0.7
 20
-0.149
 30
0.0
  0
SEQEND
  8
LAYER-1
  6
CONTINUOUS
  5
15C
  0
POLYLINE
  8
LAYER-1
  6
CONTINUOUS
 62
     7
  5
15D
 66
     1
 10
0.0
 20
0.0
 30
0.0
 70
     4
 40
0.028
 41
0.028
 75
     5
  0
VERTEX
  8
LAYER-1
  6
CONTINUOUS
 62
     7
  5
15E
 10
1.8
 20
-0.149
 30
0.0
  0
VERTEX
  8
LAYER-1
  6
CONTINUOUS
 62
     7
  5
15F
 10
1.799981
 20
-0.145933
 30
0.0
  0
VERTEX
  8
LAYER-1
  6
CONTINUOUS
 62
     7
  5
160
 10
1.799925
 20
-0.142863
 30
0.0
  0
VERTEX
  8
LAYER-1
  6
CONTINUOUS
 62
     7
  5
161
 10
1.799831
 20
-0.139797
 30
0.0
  0
VERTEX
  8
LAYER-1
  6
CONTINUOUS
 62
     7
  5
162
 10
1.799699
 20
-0.136729
 30
0.0
  0
VERTEX
  8
LAYER-1
  6
CONTINUOUS
 62
     7
  5
163
 10
1.799529
 20
-0.133667
 30
0.0
  0
VERTEX
  8
LAYER-1
  6
CONTINUOUS
 62
     7
  5
164
 10
1.799322
 20
-0.130607
 30
0.0
  0
VERTEX
  8
LAYER-1
  6
CONTINUOUS
 62
     7
  5
165
 10
1.799078
 20
-0.127546
 30
0.0
  0
VERTEX
  8
LAYER-1
  6
CONTINUOUS
 62
     7
  5
166
 10
1.798796
 20
-0.124492
 30
0.0
  0
VERTEX
  8
LAYER-1
  6
CONTINUOUS
 62
     7
  5
167
 10
1.798477
 20
-0.121442
 30
0.0
  0
VERTEX
  8
LAYER-1
  6
CONTINUOUS
 62
     7
  5
168
 10
1.798119
 20
-0.118392
 30
0.0
  0
VERTEX
  8
LAYER-1
  6
CONTINUOUS
 62
     7
  5
169
 10
1.797725
 20
-0.11535
 30
0.0
  0
VERTEX
  8
LAYER-1
  6
CONTINUOUS
 62
     7
  5
16A
 10
1.797293
 20
-0.11231
 30
0.0
  0
VERTEX
  8
LAYER-1
  6
CONTINUOUS
 62
     7
  5
16B
 10
1.796825
 20
-0.109279
 30
0.0
  0
VERTEX
  8
LAYER-1
  6
CONTINUOUS
 62
     7
  5
16C
 10
1.796319
 20
-0.106254
 30
0.0
  0
VERTEX
  8
LAYER-1
  6
CONTINUOUS
 62
     7
  5
16D
 10
1.795775
 20
-0.103232
 30
0.0
  0
VERTEX
  8
LAYER-1
  6
CONTINUOUS
 62
     7
  5
16E
 10
1.795195
 20
-0.10022
 30
0.0
  0
VERTEX
  8
LAYER-1
  6
CONTINUOUS
 62
     7
  5
16F
 10
1.794579
 20
-0.097215
 30
0.0
  0
VERTEX
  8
LAYER-1
  6
CONTINUOUS
 62
     7
  5
170
 10
1.793924
 20
-0.094215
 30
0.0
  0
VERTEX
  8
LAYER-1
  6
CONTINUOUS
 62
     7
  5
171
 10
1.793234
 20
-0.091227
 30
0.0
  0
VERTEX
  8
LAYER-1
  6
CONTINUOUS
 62
     7
  5
172
 10
1.792506
 20
-0.088244
 30
0.0
  0
VERTEX
  8
LAYER-1
  6
CONTINUOUS
 62
     7
  5
173
 10
1.791743
 20
-0.085273
 30
0.0
  0
VERTEX
  8
LAYER-1
  6
CONTINUOUS
 62
     7
  5
174
 10
1.790943
 20
-0.082312
 30
0.0
  0
VERTEX
  8
LAYER-1
  6
CONTINUOUS
 62
     7
  5
175
 10
1.790105
 20
-0.079358
 30
0.0
  0
VERTEX
  8
LAYER-1
  6
CONTINUOUS
 62
     7
  5
176
 10
1.789233
 20
-0.076418
 30
0.0
  0
VERTEX
  8
LAYER-1
  6
CONTINUOUS
 62
     7
  5
177
 10
1.788325
 20
-0.073488
 30
0.0
  0
VERTEX
  8
LAYER-1
  6
CONTINUOUS
 62
     7
  5
178
 10
1.787379
 20
-0.070567
 30
0.0
  0
VERTEX
  8
LAYER-1
  6
CONTINUOUS
 62
     7
  5
179
 10
1.7864
 20
-0.06766
 30
0.0
  0
VERTEX
  8
LAYER-1
  6
CONTINUOUS
 62
     7
  5
17A
 10
1.785383
 20
-0.064763
 30
0.0
  0
VERTEX
  8
LAYER-1
  6
CONTINUOUS
 62
     7
  5
17B
 10
1.784332
 20
-0.061882
 30
0.0
  0
VERTEX
  8
LAYER-1
  6
CONTINUOUS
 62
     7
  5
17C
 10
1.783246
 20
-0.059014
 30
0.0
  0
VERTEX
  8
LAYER-1
  6
CONTINUOUS
 62
     7
  5
17D
 10
1.782123
 20
-0.056155
 30
0.0
  0
VERTEX
  8
LAYER-1
  6
CONTINUOUS
 62
     7
  5
17E
 10
1.780966
 20
-0.053315
 30
0.0
  0
VERTEX
  8
LAYER-1
  6
CONTINUOUS
 62
     7
  5
17F
 10
1.779775
 20
-0.050489
 30
0.0
  0
VERTEX
  8
LAYER-1
  6
CONTINUOUS
 62
     7
  5
180
 10
1.778548
 20
-0.047674
 30
0.0
  0
VERTEX
  8
LAYER-1
  6
CONTINUOUS
 62
     7
  5
181
 10
1.777288
 20
-0.044878
 30
0.0
  0
VERTEX
  8
LAYER-1
  6
CONTINUOUS
 62
     7
  5
182
 10
1.775992
 20
-0.042094
 30
0.0
  0
VERTEX
  8
LAYER-1
  6
CONTINUOUS
 62
     7
  5
183
 10
1.774663
 20
-0.039329
 30
0.0
  0
VERTEX
  8
LAYER-1
  6
CONTINUOUS
 62
     7
  5
184
 10
1.773301
 20
-0.036582
 30
0.0
  0
VERTEX
  8
LAYER-1
  6
CONTINUOUS
 62
     7
  5
185
 10
1.771904
 20
-0.033847
 30
0.0
  0
VERTEX
  8
LAYER-1
  6
CONTINUOUS
 62
     7
  5
186
 10
1.770474
 20
-0.031134
 30
0.0
  0
VERTEX
  8
LAYER-1
  6
CONTINUOUS
 62
     7
  5
187
 10
1.769012
 20
-0.028438
 30
0.0
  0
VERTEX
  8
LAYER-1
  6
CONTINUOUS
 62
     7
  5
188
 10
1.767514
 20
-0.025757
 30
0.0
  0
VERTEX
  8
LAYER-1
  6
CONTINUOUS
 62
     7
  5
189
 10
1.765986
 20
-0.023098
 30
0.0
  0
VERTEX
  8
LAYER-1
  6
CONTINUOUS
 62
     7
  5
18A
 10
1.764423
 20
-0.020454
 30
0.0
  0
VERTEX
  8
LAYER-1
  6
CONTINUOUS
 62
     7
  5
18B
 10
1.76283
 20
-0.017834
 30
0.0
  0
VERTEX
  8
LAYER-1
  6
CONTINUOUS
 62
     7
  5
18C
 10
1.761205
 20
-0.015233
 30
0.0
  0
VERTEX
  8
LAYER-1
  6
CONTINUOUS
 62
     7
  5
18D
 10
1.759546
 20
-0.012649
 30
0.0
  0
VERTEX
  8
LAYER-1
  6
CONTINUOUS
 62
     7
  5
18E
 10
1.757858
 20
-0.010088
 30
0.0
  0
VERTEX
  8
LAYER-1
  6
CONTINUOUS
 62
     7
  5
18F
 10
1.756138
 20
-0.007549
 30
0.0
  0
VERTEX
  8
LAYER-1
  6
CONTINUOUS
 62
     7
  5
190
 10
1.754385
 20
-0.005027
 30
0.0
  0
VERTEX
  8
LAYER-1
  6
CONTINUOUS
 62
     7
  5
191
 10
1.752603
 20
-0.002531
 30
0.0
  0
VERTEX
  8
LAYER-1
  6
CONTINUOUS
 62
     7
  5
192
 10
1.750789
 20
-0.000053
 30
0.0
  0
VERTEX
  8
LAYER-1
  6
CONTINUOUS
 62
     7
  5
193
 10
1.748947
 20
0.002399
 30
0.0
  0
VERTEX
  8
LAYER-1
  6
CONTINUOUS
 62
     7
  5
194
 10
1.747074
 20
0.004828
 30
0.0
  0
VERTEX
  8
LAYER-1
  6
CONTINUOUS
 62
     7
  5
195
 10
1.74517
 20
0.007237
 30
0.0
  0
VERTEX
  8
LAYER-1
  6
CONTINUOUS
 62
     7
  5
196
 10
1.743238
 20
0.009619
 30
0.0
  0
VERTEX
  8
LAYER-1
  6
CONTINUOUS
 62
     7
  5
197
 10
1.741278
 20
0.011978
 30
0.0
  0
VERTEX
  8
LAYER-1
  6
CONTINUOUS
 62
     7
  5
198
 10
1.739286
 20
0.014315
 30
0.0
  0
VERTEX
  8
LAYER-1
  6
CONTINUOUS
 62
     7
  5
199
 10
1.737268
 20
0.016625
 30
0.0
  0
VERTEX
  8
LAYER-1
  6
CONTINUOUS
 62
     7
  5
19A
 10
1.73522
 20
0.018913
 30
0.0
  0
VERTEX
  8
LAYER-1
  6
CONTINUOUS
 62
     7
  5
19B
 10
1.733146
 20
0.021172
 30
0.0
  0
VERTEX
  8
LAYER-1
  6
CONTINUOUS
 62
     7
  5
19C
 10
1.731044
 20
0.023406
 30
0.0
  0
VERTEX
  8
LAYER-1
  6
CONTINUOUS
 62
     7
  5
19D
 10
1.728913
 20
0.025617
 30
0.0
  0
VERTEX
  8
LAYER-1
  6
CONTINUOUS
 62
     7
  5
19E
 10
1.726756
 20
0.0278
 30
0.0
  0
VERTEX
  8
LAYER-1
  6
CONTINUOUS
 62
     7
  5
19F
 10
1.724573
 20
0.029955
 30
0.0
  0
VERTEX
  8
LAYER-1
  6
CONTINUOUS
 62
     7
  5
1A0
 10
1.722362
 20
0.032086
 30
0.0
  0
VERTEX
  8
LAYER-1
  6
CONTINUOUS
 62
     7
  5
1A1
 10
1.720128
 20
0.034187
 30
0.0
  0
VERTEX
  8
LAYER-1
  6
CONTINUOUS
 62
     7
  5
1A2
 10
1.717865
 20
0.036263
 30
0.0
  0
VERTEX
  8
LAYER-1
  6
CONTINUOUS
 62
     7
  5
1A3
 10
1.715579
 20
0.038309
 30
0.0
  0
VERTEX
  8
LAYER-1
  6
CONTINUOUS
 62
     7
  5
1A4
 10
1.713269
 20
0.040326
 30
0.0
  0
VERTEX
  8
LAYER-1
  6
CONTINUOUS
 62
     7
  5
1A5
 10
1.710931
 20
0.042317
 30
0.0
  0
VERTEX
  8
LAYER-1
  6
CONTINUOUS
 62
     7
  5
1A6
 10
1.708572
 20
0.044277
 30
0.0
  0
VERTEX
  8
LAYER-1
  6
CONTINUOUS
 62
     7
  5
1A7
 10
1.706189
 20
0.046208
 30
0.0
  0
VERTEX
  8
LAYER-1
  6
CONTINUOUS
 62
     7
  5
1A8
 10
1.70378
 20
0.048112
 30
0.0
  0
VERTEX
  8
LAYER-1
  6
CONTINUOUS
 62
     7
  5
1A9
 10
1.70135
 20
0.049984
 30
0.0
  0
VERTEX
  8
LAYER-1
  6
CONTINUOUS
 62
     7
  5
1AA
 10
1.698895
 20
0.051828
 30
0.0
  0
VERTEX
  8
LAYER-1
  6
CONTINUOUS
 62
     7
  5
1AB
 10
1.69642
 20
0.053639
 30
0.0
  0
VERTEX
  8
LAYER-1
  6
CONTINUOUS
 62
     7
  5
1AC
 10
1.693923
 20
0.05542
 30
0.0
  0
VERTEX
  8
LAYER-1
  6
CONTINUOUS
 62
     7
  5
1AD
 10
1.691401
 20
0.057173
 30
0.0
  0
VERTEX
  8
LAYER-1
  6
CONTINUOUS
 62
     7
  5
1AE
 10
1.688861
 20
0.058892
 30
0.0
  0
VERTEX
  8
LAYER-1
  6
CONTINUOUS
 62
     7
  5
1AF
 10
1.6863
 20
0.06058
 30
0.0
  0
VERTEX
  8
LAYER-1
  6
CONTINUOUS
 62
     7
  5
1B0
 10
1.683716
 20
0.062238
 30
0.0
  0
VERTEX
  8
LAYER-1
  6
CONTINUOUS
 62
     7
  5
1B1
 10
1.681114
 20
0.063862
 30
0.0
  0
VERTEX
  8
LAYER-1
  6
CONTINUOUS
 62
     7
  5
1B2
 10
1.67849
 20
0.065457
 30
0.0
  0
VERTEX
  8
LAYER-1
  6
CONTINUOUS
 62
     7
  5
1B3
 10
1.675849
 20
0.067017
 30
0.0
  0
VERTEX
  8
LAYER-1
  6
CONTINUOUS
 62
     7
  5
1B4
 10
1.67319
 20
0.068544
 30
0.0
  0
VERTEX
  8
LAYER-1
  6
CONTINUOUS
 62
     7
  5
1B5
 10
1.670509
 20
0.070041
 30
0.0
  0
VERTEX
  8
LAYER-1
  6
CONTINUOUS
 62
     7
  5
1B6
 10
1.667812
 20
0.071503
 30
0.0
  0
VERTEX
  8
LAYER-1
  6
CONTINUOUS
 62
     7
  5
1B7
 10
1.665099
 20
0.072932
 30
0.0
  0
VERTEX
  8
LAYER-1
  6
CONTINUOUS
 62
     7
  5
1B8
 10
1.662364
 20
0.074329
 30
0.0
  0
VERTEX
  8
LAYER-1
  6
CONTINUOUS
 62
     7
  5
1B9
 10
1.659616
 20
0.07569
 30
0.0
  0
VERTEX
  8
LAYER-1
  6
CONTINUOUS
 62
     7
  5
1BA
 10
1.656848
 20
0.07702
 30
0.0
  0
VERTEX
  8
LAYER-1
  6
CONTINUOUS
 62
     7
  5
1BB
 10
1.654067
 20
0.078313
 30
0.0
  0
VERTEX
  8
LAYER-1
  6
CONTINUOUS
 62
     7
  5
1BC
 10
1.65127
 20
0.079573
 30
0.0
  0
VERTEX
  8
LAYER-1
  6
CONTINUOUS
 62
     7
  5
1BD
 10
1.648455
 20
0.080799
 30
0.0
  0
VERTEX
  8
LAYER-1
  6
CONTINUOUS
 62
     7
  5
1BE
 10
1.645629
 20
0.08199
 30
0.0
  0
VERTEX
  8
LAYER-1
  6
CONTINUOUS
 62
     7
  5
1BF
 10
1.642788
 20
0.083145
 30
0.0
  0
VERTEX
  8
LAYER-1
  6
CONTINUOUS
 62
     7
  5
1C0
 10
1.63993
 20
0.084267
 30
0.0
  0
VERTEX
  8
LAYER-1
  6
CONTINUOUS
 62
     7
  5
1C1
 10
1.637061
 20
0.085353
 30
0.0
  0
VERTEX
  8
LAYER-1
  6
CONTINUOUS
 62
     7
  5
1C2
 10
1.634176
 20
0.086405
 30
0.0
  0
VERTEX
  8
LAYER-1
  6
CONTINUOUS
 62
     7
  5
1C3
 10
1.631282
 20
0.087419
 30
0.0
  0
VERTEX
  8
LAYER-1
  6
CONTINUOUS
 62
     7
  5
1C4
 10
1.628375
 20
0.088399
 30
0.0
  0
VERTEX
  8
LAYER-1
  6
CONTINUOUS
 62
     7
  5
1C5
 10
1.625454
 20
0.089343
 30
0.0
  0
VERTEX
  8
LAYER-1
  6
CONTINUOUS
 62
     7
  5
1C6
 10
1.622524
 20
0.090251
 30
0.0
  0
VERTEX
  8
LAYER-1
  6
CONTINUOUS
 62
     7
  5
1C7
 10
1.619583
 20
0.091122
 30
0.0
  0
VERTEX
  8
LAYER-1
  6
CONTINUOUS
 62
     7
  5
1C8
 10
1.616629
 20
0.091959
 30
0.0
  0
VERTEX
  8
LAYER-1
  6
CONTINUOUS
 62
     7
  5
1C9
 10
1.613668
 20
0.092758
 30
0.0
  0
VERTEX
  8
LAYER-1
  6
CONTINUOUS
 62
     7
  5
1CA
 10
1.610693
 20
0.093522
 30
0.0
  0
VERTEX
  8
LAYER-1
  6
CONTINUOUS
 62
     7
  5
1CB
 10
1.607714
 20
0.094248
 30
0.0
  0
VERTEX
  8
LAYER-1
  6
CONTINUOUS
 62
     7
  5
1CC
 10
1.604725
 20
0.094938
 30
0.0
  0
VERTEX
  8
LAYER-1
  6
CONTINUOUS
 62
     7
  5
1CD
 10
1.601725
 20
0.095591
 30
0.0
  0
VERTEX
  8
LAYER-1
  6
CONTINUOUS
 62
     7
  5
1CE
 10
1.59872
 20
0.096207
 30
0.0
  0
VERTEX
  8
LAYER-1
  6
CONTINUOUS
 62
     7
  5
1CF
 10
1.595709
 20
0.096787
 30
0.0
  0
VERTEX
  8
LAYER-1
  6
CONTINUOUS
 62
     7
  5
1D0
 10
1.592686
 20
0.097329
 30
0.0
  0
VERTEX
  8
LAYER-1
  6
CONTINUOUS
 62
     7
  5
1D1
 10
1.589661
 20
0.097834
 30
0.0
  0
VERTEX
  8
LAYER-1
  6
CONTINUOUS
 62
     7
  5
1D2
 10
1.586626
 20
0.098303
 30
0.0
  0
VERTEX
  8
LAYER-1
  6
CONTINUOUS
 62
     7
  5
1D3
 10
1.58359
 20
0.098734
 30
0.0
  0
VERTEX
  8
LAYER-1
  6
CONTINUOUS
 62
     7
  5
1D4
 10
1.580548
 20
0.099127
 30
0.0
  0
VERTEX
  8
LAYER-1
  6
CONTINUOUS
 62
     7
  5
1D5
 10
1.577498
 20
0.099483
 30
0.0
  0
VERTEX
  8
LAYER-1
  6
CONTINUOUS
 62
     7
  5
1D6
 10
1.574447
 20
0.099802
 30
0.0
  0
VERTEX
  8
LAYER-1
  6
CONTINUOUS
 62
     7
  5
1D7
 10
1.571393
 20
0.100083
 30
0.0
  0
VERTEX
  8
LAYER-1
  6
CONTINUOUS
 62
     7
  5
1D8
 10
1.568332
 20
0.100327
 30
0.0
  0
VERTEX
  8
LAYER-1
  6
CONTINUOUS
 62
     7
  5
1D9
 10
1.565272
 20
0.100533
 30
0.0
  0
VERTEX
  8
LAYER-1
  6
CONTINUOUS
 62
     7
  5
1DA
 10
1.562206
 20
0.100702
 30
0.0
  0
VERTEX
  8
LAYER-1
  6
CONTINUOUS
 62
     7
  5
1DB
 10
1.559142
 20
0.100833
 30
0.0
  0
VERTEX
  8
LAYER-1
  6
CONTINUOUS
 62
     7
  5
1DC
 10
1.556076
 20
0.100926
 30
0.0
  0
VERTEX
  8
LAYER-1
  6
CONTINUOUS
 62
     7
  5
1DD
 10
1.553006
 20
0.100982
 30
0.0
  0
VERTEX
  8
LAYER-1
  6
CONTINUOUS
 62
     7
  5
1DE
 10
1.55
 20
0.101
 30
0.0
  0
SEQEND
  8
LAYER-1
  6
CONTINUOUS
  5
1DF
  0
POLYLINE
  8
LAYER-1
  6
CONTINUOUS
 62
     7
  5
1E0
 66
     1
 10
0.0
 20
0.0
 30
0.0
 70
     4
 40
0.028
 41
0.028
 75
     5
  0
VERTEX
  8
LAYER-1
  6
CONTINUOUS
 62
     7
  5
1E1
 10
1.55
 20
-0.601
 30
0.0
  0
VERTEX
  8
LAYER-1
  6
CONTINUOUS
 62
     7
  5
1E2
 10
1.553006
 20
-0.600982
 30
0.0
  0
VERTEX
  8
LAYER-1
  6
CONTINUOUS
 62
     7
  5
1E3
 10
1.556076
 20
-0.600926
 30
0.0
  0
VERTEX
  8
LAYER-1
  6
CONTINUOUS
 62
     7
  5
1E4
 10
1.559142
 20
-0.600833
 30
0.0
  0
VERTEX
  8
LAYER-1
  6
CONTINUOUS
 62
     7
  5
1E5
 10
1.562206
 20
-0.600702
 30
0.0
  0
VERTEX
  8
LAYER-1
  6
CONTINUOUS
 62
     7
  5
1E6
 10
1.565272
 20
-0.600533
 30
0.0
  0
VERTEX
  8
LAYER-1
  6
CONTINUOUS
 62
     7
  5
1E7
 10
1.568332
 20
-0.600327
 30
0.0
  0
VERTEX
  8
LAYER-1
  6
CONTINUOUS
 62
     7
  5
1E8
 10
1.571393
 20
-0.600083
 30
0.0
  0
VERTEX
  8
LAYER-1
  6
CONTINUOUS
 62
     7
  5
1E9
 10
1.574447
 20
-0.599802
 30
0.0
  0
VERTEX
  8
LAYER-1
  6
CONTINUOUS
 62
     7
  5
1EA
 10
1.577498
 20
-0.599483
 30
0.0
  0
VERTEX
  8
LAYER-1
  6
CONTINUOUS
 62
     7
  5
1EB
 10
1.580548
 20
-0.599127
 30
0.0
  0
VERTEX
  8
LAYER-1
  6
CONTINUOUS
 62
     7
  5
1EC
 10
1.58359
 20
-0.598734
 30
0.0
  0
VERTEX
  8
LAYER-1
  6
CONTINUOUS
 62
     7
  5
1ED
 10
1.586626
 20
-0.598303
 30
0.0
  0
VERTEX
  8
LAYER-1
  6
CONTINUOUS
 62
     7
  5
1EE
 10
1.589661
 20
-0.597835
 30
0.0
  0
VERTEX
  8
LAYER-1
  6
CONTINUOUS
 62
     7
  5
1EF
 10
1.592686
 20
-0.597329
 30
0.0
  0
VERTEX
  8
LAYER-1
  6
CONTINUOUS
 62
     7
  5
1F0
 10
1.595709
 20
-0.596787
 30
0.0
  0
VERTEX
  8
LAYER-1
  6
CONTINUOUS
 62
     7
  5
1F1
 10
1.59872
 20
-0.596208
 30
0.0
  0
VERTEX
  8
LAYER-1
  6
CONTINUOUS
 62
     7
  5
1F2
 10
1.601725
 20
-0.595592
 30
0.0
  0
VERTEX
  8
LAYER-1
  6
CONTINUOUS
 62
     7
  5
1F3
 10
1.604725
 20
-0.594938
 30
0.0
  0
VERTEX
  8
LAYER-1
  6
CONTINUOUS
 62
     7
  5
1F4
 10
1.607714
 20
-0.594248
 30
0.0
  0
VERTEX
  8
LAYER-1
  6
CONTINUOUS
 62
     7
  5
1F5
 10
1.610693
 20
-0.593522
 30
0.0
  0
VERTEX
  8
LAYER-1
  6
CONTINUOUS
 62
     7
  5
1F6
 10
1.613668
 20
-0.592758
 30
0.0
  0
VERTEX
  8
LAYER-1
  6
CONTINUOUS
 62
     7
  5
1F7
 10
1.616629
 20
-0.591959
 30
0.0
  0
VERTEX
  8
LAYER-1
  6
CONTINUOUS
 62
     7
  5
1F8
 10
1.619583
 20
-0.591123
 30
0.0
  0
VERTEX
  8
LAYER-1
  6
CONTINUOUS
 62
     7
  5
1F9
 10
1.622524
 20
-0.590251
 30
0.0
  0
VERTEX
  8
LAYER-1
  6
CONTINUOUS
 62
     7
  5
1FA
 10
1.625454
 20
-0.589343
 30
0.0
  0
VERTEX
  8
LAYER-1
  6
CONTINUOUS
 62
     7
  5
1FB
 10
1.628375
 20
-0.588399
 30
0.0
  0
VERTEX
  8
LAYER-1
  6
CONTINUOUS
 62
     7
  5
1FC
 10
1.631282
 20
-0.587419
 30
0.0
  0
VERTEX
  8
LAYER-1
  6
CONTINUOUS
 62
     7
  5
1FD
 10
1.634176
 20
-0.586405
 30
0.0
  0
VERTEX
  8
LAYER-1
  6
CONTINUOUS
 62
     7
  5
1FE
 10
1.637061
 20
-0.585353
 30
0.0
  0
VERTEX
  8
LAYER-1
  6
CONTINUOUS
 62
     7
  5
1FF
 10
1.63993
 20
-0.584268
 30
0.0
  0
VERTEX
  8
LAYER-1
  6
CONTINUOUS
 62
     7
  5
200
 10
1.642788
 20
-0.583145
 30
0.0
  0
VERTEX
  8
LAYER-1
  6
CONTINUOUS
 62
     7
  5
201
 10
1.645629
 20
-0.58199
 30
0.0
  0
VERTEX
  8
LAYER-1
  6
CONTINUOUS
 62
     7
  5
202
 10
1.648455
 20
-0.580799
 30
0.0
  0
VERTEX
  8
LAYER-1
  6
CONTINUOUS
 62
     7
  5
203
 10
1.65127
 20
-0.579573
 30
0.0
  0
VERTEX
  8
LAYER-1
  6
CONTINUOUS
 62
     7
  5
204
 10
1.654067
 20
-0.578313
 30
0.0
  0
VERTEX
  8
LAYER-1
  6
CONTINUOUS
 62
     7
  5
205
 10
1.656848
 20
-0.57702
 30
0.0
  0
VERTEX
  8
LAYER-1
  6
CONTINUOUS
 62
     7
  5
206
 10
1.659616
 20
-0.57569
 30
0.0
  0
VERTEX
  8
LAYER-1
  6
CONTINUOUS
 62
     7
  5
207
 10
1.662364
 20
-0.574329
 30
0.0
  0
VERTEX
  8
LAYER-1
  6
CONTINUOUS
 62
     7
  5
208
 10
1.665099
 20
-0.572932
 30
0.0
  0
VERTEX
  8
LAYER-1
  6
CONTINUOUS
 62
     7
  5
209
 10
1.667812
 20
-0.571503
 30
0.0
  0
VERTEX
  8
LAYER-1
  6
CONTINUOUS
 62
     7
  5
20A
 10
1.670509
 20
-0.570041
 30
0.0
  0
VERTEX
  8
LAYER-1
  6
CONTINUOUS
 62
     7
  5
20B
 10
1.67319
 20
-0.568545
 30
0.0
  0
VERTEX
  8
LAYER-1
  6
CONTINUOUS
 62
     7
  5
20C
 10
1.675849
 20
-0.567017
 30
0.0
  0
VERTEX
  8
LAYER-1
  6
CONTINUOUS
 62
     7
  5
20D
 10
1.67849
 20
-0.565457
 30
0.0
  0
VERTEX
  8
LAYER-1
  6
CONTINUOUS
 62
     7
  5
20E
 10
1.681114
 20
-0.563862
 30
0.0
  0
VERTEX
  8
LAYER-1
  6
CONTINUOUS
 62
     7
  5
20F
 10
1.683716
 20
-0.562238
 30
0.0
  0
VERTEX
  8
LAYER-1
  6
CONTINUOUS
 62
     7
  5
210
 10
1.6863
 20
-0.56058
 30
0.0
  0
VERTEX
  8
LAYER-1
  6
CONTINUOUS
 62
     7
  5
211
 10
1.688861
 20
-0.558892
 30
0.0
  0
VERTEX
  8
LAYER-1
  6
CONTINUOUS
 62
     7
  5
212
 10
1.691401
 20
-0.557173
 30
0.0
  0
VERTEX
  8
LAYER-1
  6
CONTINUOUS
 62
     7
  5
213
 10
1.693923
 20
-0.55542
 30
0.0
  0
VERTEX
  8
LAYER-1
  6
CONTINUOUS
 62
     7
  5
214
 10
1.69642
 20
-0.553639
 30
0.0
  0
VERTEX
  8
LAYER-1
  6
CONTINUOUS
 62
     7
  5
215
 10
1.698895
 20
-0.551828
 30
0.0
  0
VERTEX
  8
LAYER-1
  6
CONTINUOUS
 62
     7
  5
216
 10
1.70135
 20
-0.549984
 30
0.0
  0
VERTEX
  8
LAYER-1
  6
CONTINUOUS
 62
     7
  5
217
 10
1.70378
 20
-0.548112
 30
0.0
  0
VERTEX
  8
LAYER-1
  6
CONTINUOUS
 62
     7
  5
218
 10
1.706189
 20
-0.546208
 30
0.0
  0
VERTEX
  8
LAYER-1
  6
CONTINUOUS
 62
     7
  5
219
 10
1.708572
 20
-0.544277
 30
0.0
  0
VERTEX
  8
LAYER-1
  6
CONTINUOUS
 62
     7
  5
21A
 10
1.710931
 20
-0.542317
 30
0.0
  0
VERTEX
  8
LAYER-1
  6
CONTINUOUS
 62
     7
  5
21B
 10
1.713269
 20
-0.540326
 30
0.0
  0
VERTEX
  8
LAYER-1
  6
CONTINUOUS
 62
     7
  5
21C
 10
1.715579
 20
-0.538309
 30
0.0
  0
VERTEX
  8
LAYER-1
  6
CONTINUOUS
 62
     7
  5
21D
 10
1.717865
 20
-0.536263
 30
0.0
  0
VERTEX
  8
LAYER-1
  6
CONTINUOUS
 62
     7
  5
21E
 10
1.720128
 20
-0.534188
 30
0.0
  0
VERTEX
  8
LAYER-1
  6
CONTINUOUS
 62
     7
  5
21F
 10
1.722362
 20
-0.532087
 30
0.0
  0
VERTEX
  8
LAYER-1
  6
CONTINUOUS
 62
     7
  5
220
 10
1.724573
 20
-0.529956
 30
0.0
  0
VERTEX
  8
LAYER-1
  6
CONTINUOUS
 62
     7
  5
221
 10
1.726756
 20
-0.5278
 30
0.0
  0
VERTEX
  8
LAYER-1
  6
CONTINUOUS
 62
     7
  5
222
 10
1.728913
 20
-0.525617
 30
0.0
  0
VERTEX
  8
LAYER-1
  6
CONTINUOUS
 62
     7
  5
223
 10
1.731044
 20
-0.523406
 30
0.0
  0
VERTEX
  8
LAYER-1
  6
CONTINUOUS
 62
     7
  5
224
 10
1.733146
 20
-0.521172
 30
0.0
  0
VERTEX
  8
LAYER-1
  6
CONTINUOUS
 62
     7
  5
225
 10
1.73522
 20
-0.518913
 30
0.0
  0
VERTEX
  8
LAYER-1
  6
CONTINUOUS
 62
     7
  5
226
 10
1.737268
 20
-0.516625
 30
0.0
  0
VERTEX
  8
LAYER-1
  6
CONTINUOUS
 62
     7
  5
227
 10
1.739286
 20
-0.514315
 30
0.0
  0
VERTEX
  8
LAYER-1
  6
CONTINUOUS
 62
     7
  5
228
 10
1.741278
 20
-0.511978
 30
0.0
  0
VERTEX
  8
LAYER-1
  6
CONTINUOUS
 62
     7
  5
229
 10
1.743238
 20
-0.509619
 30
0.0
  0
VERTEX
  8
LAYER-1
  6
CONTINUOUS
 62
     7
  5
22A
 10
1.74517
 20
-0.507237
 30
0.0
  0
VERTEX
  8
LAYER-1
  6
CONTINUOUS
 62
     7
  5
22B
 10
1.747074
 20
-0.504828
 30
0.0
  0
VERTEX
  8
LAYER-1
  6
CONTINUOUS
 62
     7
  5
22C
 10
1.748947
 20
-0.502399
 30
0.0
  0
VERTEX
  8
LAYER-1
  6
CONTINUOUS
 62
     7
  5
22D
 10
1.750789
 20
-0.499947
 30
0.0
  0
VERTEX
  8
LAYER-1
  6
CONTINUOUS
 62
     7
  5
22E
 10
1.752603
 20
-0.497469
 30
0.0
  0
VERTEX
  8
LAYER-1
  6
CONTINUOUS
 62
     7
  5
22F
 10
1.754385
 20
-0.494973
 30
0.0
  0
VERTEX
  8
LAYER-1
  6
CONTINUOUS
 62
     7
  5
230
 10
1.756138
 20
-0.492451
 30
0.0
  0
VERTEX
  8
LAYER-1
  6
CONTINUOUS
 62
     7
  5
231
 10
1.757858
 20
-0.489912
 30
0.0
  0
VERTEX
  8
LAYER-1
  6
CONTINUOUS
 62
     7
  5
232
 10
1.759546
 20
-0.487352
 30
0.0
  0
VERTEX
  8
LAYER-1
  6
CONTINUOUS
 62
     7
  5
233
 10
1.761205
 20
-0.484768
 30
0.0
  0
VERTEX
  8
LAYER-1
  6
CONTINUOUS
 62
     7
  5
234
 10
1.76283
 20
-0.482167
 30
0.0
  0
VERTEX
  8
LAYER-1
  6
CONTINUOUS
 62
     7
  5
235
 10
1.764423
 20
-0.479546
 30
0.0
  0
VERTEX
  8
LAYER-1
  6
CONTINUOUS
 62
     7
  5
236
 10
1.765986
 20
-0.476902
 30
0.0
  0
VERTEX
  8
LAYER-1
  6
CONTINUOUS
 62
     7
  5
237
 10
1.767514
 20
-0.474243
 30
0.0
  0
VERTEX
  8
LAYER-1
  6
CONTINUOUS
 62
     7
  5
238
 10
1.769012
 20
-0.471562
 30
0.0
  0
VERTEX
  8
LAYER-1
  6
CONTINUOUS
 62
     7
  5
239
 10
1.770474
 20
-0.468866
 30
0.0
  0
VERTEX
  8
LAYER-1
  6
CONTINUOUS
 62
     7
  5
23A
 10
1.771904
 20
-0.466153
 30
0.0
  0
VERTEX
  8
LAYER-1
  6
CONTINUOUS
 62
     7
  5
23B
 10
1.773301
 20
-0.463419
 30
0.0
  0
VERTEX
  8
LAYER-1
  6
CONTINUOUS
 62
     7
  5
23C
 10
1.774663
 20
-0.460671
 30
0.0
  0
VERTEX
  8
LAYER-1
  6
CONTINUOUS
 62
     7
  5
23D
 10
1.775992
 20
-0.457906
 30
0.0
  0
VERTEX
  8
LAYER-1
  6
CONTINUOUS
 62
     7
  5
23E
 10
1.777288
 20
-0.455122
 30
0.0
  0
VERTEX
  8
LAYER-1
  6
CONTINUOUS
 62
     7
  5
23F
 10
1.778548
 20
-0.452326
 30
0.0
  0
VERTEX
  8
LAYER-1
  6
CONTINUOUS
 62
     7
  5
240
 10
1.779775
 20
-0.449512
 30
0.0
  0
VERTEX
  8
LAYER-1
  6
CONTINUOUS
 62
     7
  5
241
 10
1.780966
 20
-0.446685
 30
0.0
  0
VERTEX
  8
LAYER-1
  6
CONTINUOUS
 62
     7
  5
242
 10
1.782123
 20
-0.443845
 30
0.0
  0
VERTEX
  8
LAYER-1
  6
CONTINUOUS
 62
     7
  5
243
 10
1.783246
 20
-0.440987
 30
0.0
  0
VERTEX
  8
LAYER-1
  6
CONTINUOUS
 62
     7
  5
244
 10
1.784332
 20
-0.438118
 30
0.0
  0
VERTEX
  8
LAYER-1
  6
CONTINUOUS
 62
     7
  5
245
 10
1.785383
 20
-0.435237
 30
0.0
  0
VERTEX
  8
LAYER-1
  6
CONTINUOUS
 62
     7
  5
246
 10
1.7864
 20
-0.43234
 30
0.0
  0
VERTEX
  8
LAYER-1
  6
CONTINUOUS
 62
     7
  5
247
 10
1.787379
 20
-0.429433
 30
0.0
  0
VERTEX
  8
LAYER-1
  6
CONTINUOUS
 62
     7
  5
248
 10
1.788325
 20
-0.426512
 30
0.0
  0
VERTEX
  8
LAYER-1
  6
CONTINUOUS
 62
     7
  5
249
 10
1.789233
 20
-0.423582
 30
0.0
  0
VERTEX
  8
LAYER-1
  6
CONTINUOUS
 62
     7
  5
24A
 10
1.790105
 20
-0.420642
 30
0.0
  0
VERTEX
  8
LAYER-1
  6
CONTINUOUS
 62
     7
  5
24B
 10
1.790943
 20
-0.417688
 30
0.0
  0
VERTEX
  8
LAYER-1
  6
CONTINUOUS
 62
     7
  5
24C
 10
1.791743
 20
-0.414727
 30
0.0
  0
VERTEX
  8
LAYER-1
  6
CONTINUOUS
 62
     7
  5
24D
 10
1.792506
 20
-0.411756
 30
0.0
  0
VERTEX
  8
LAYER-1
  6
CONTINUOUS
 62
     7
  5
24E
 10
1.793234
 20
-0.408773
 30
0.0
  0
VERTEX
  8
LAYER-1
  6
CONTINUOUS
 62
     7
  5
24F
 10
1.793924
 20
-0.405785
 30
0.0
  0
VERTEX
  8
LAYER-1
  6
CONTINUOUS
 62
     7
  5
250
 10
1.794579
 20
-0.402785
 30
0.0
  0
VERTEX
  8
LAYER-1
  6
CONTINUOUS
 62
     7
  5
251
 10
1.795195
 20
-0.39978
 30
0.0
  0
VERTEX
  8
LAYER-1
  6
CONTINUOUS
 62
     7
  5
252
 10
1.795775
 20
-0.396769
 30
0.0
  0
VERTEX
  8
LAYER-1
  6
CONTINUOUS
 62
     7
  5
253
 10
1.796319
 20
-0.393746
 30
0.0
  0
VERTEX
  8
LAYER-1
  6
CONTINUOUS
 62
     7
  5
254
 10
1.796825
 20
-0.390721
 30
0.0
  0
VERTEX
  8
LAYER-1
  6
CONTINUOUS
 62
     7
  5
255
 10
1.797293
 20
-0.38769
 30
0.0
  0
VERTEX
  8
LAYER-1
  6
CONTINUOUS
 62
     7
  5
256
 10
1.797725
 20
-0.38465
 30
0.0
  0
VERTEX
  8
LAYER-1
  6
CONTINUOUS
 62
     7
  5
257
 10
1.798119
 20
-0.381609
 30
0.0
  0
VERTEX
  8
LAYER-1
  6
CONTINUOUS
 62
     7
  5
258
 10
1.798477
 20
-0.378559
 30
0.0
  0
VERTEX
  8
LAYER-1
  6
CONTINUOUS
 62
     7
  5
259
 10
1.798796
 20
-0.375508
 30
0.0
  0
VERTEX
  8
LAYER-1
  6
CONTINUOUS
 62
     7
  5
25A
 10
1.799078
 20
-0.372454
 30
0.0
  0
VERTEX
  8
LAYER-1
  6
CONTINUOUS
 62
     7
  5
25B
 10
1.799322
 20
-0.369393
 30
0.0
  0
VERTEX
  8
LAYER-1
  6
CONTINUOUS
 62
     7
  5
25C
 10
1.799529
 20
-0.366333
 30
0.0
  0
VERTEX
  8
LAYER-1
  6
CONTINUOUS
 62
     7
  5
25D
 10
1.799699
 20
-0.363271
 30
0.0
  0
VERTEX
  8
LAYER-1
  6
CONTINUOUS
 62
     7
  5
25E
 10
1.799831
 20
-0.360203
 30
0.0
  0
VERTEX
  8
LAYER-1
  6
CONTINUOUS
 62
     7
  5
25F
 10
1.799925
 20
-0.357137
 30
0.0
  0
VERTEX
  8
LAYER-1
  6
CONTINUOUS
 62
     7
  5
260
 10
1.799981
 20
-0.354067
 30
0.0
  0
VERTEX
  8
LAYER-1
  6
CONTINUOUS
 62
     7
  5
261
 10
1.8
 20
-0.351
 30
0.0
  0
SEQEND
  8
LAYER-1
  6
CONTINUOUS
  5
262
  0
POLYLINE
  8
LAYER-1
  6
CONTINUOUS
 62
     7
  5
263
 66
     1
 10
0.0
 20
0.0
 30
0.0
 70
     4
 40
0.028
 41
0.028
 75
     5
  0
VERTEX
  8
LAYER-1
  6
CONTINUOUS
 62
     7
  5
264
 10
-0.7
 20
-0.351
 30
0.0
  0
VERTEX
  8
LAYER-1
  6
CONTINUOUS
 62
     7
  5
265
 10
-0.699981
 20
-0.354067
 30
0.0
  0
VERTEX
  8
LAYER-1
  6
CONTINUOUS
 62
     7
  5
266
 10
-0.699925
 20
-0.357137
 30
0.0
  0
VERTEX
  8
LAYER-1
  6
CONTINUOUS
 62
     7
  5
267
 10
-0.699831
 20
-0.360203
 30
0.0
  0
VERTEX
  8
LAYER-1
  6
CONTINUOUS
 62
     7
  5
268
 10
-0.699699
 20
-0.363271
 30
0.0
  0
VERTEX
  8
LAYER-1
  6
CONTINUOUS
 62
     7
  5
269
 10
-0.69953
 20
-0.366333
 30
0.0
  0
VERTEX
  8
LAYER-1
  6
CONTINUOUS
 62
     7
  5
26A
 10
-0.699323
 20
-0.369393
 30
0.0
  0
VERTEX
  8
LAYER-1
  6
CONTINUOUS
 62
     7
  5
26B
 10
-0.699078
 20
-0.372454
 30
0.0
  0
VERTEX
  8
LAYER-1
  6
CONTINUOUS
 62
     7
  5
26C
 10
-0.698796
 20
-0.375508
 30
0.0
  0
VERTEX
  8
LAYER-1
  6
CONTINUOUS
 62
     7
  5
26D
 10
-0.698477
 20
-0.378559
 30
0.0
  0
VERTEX
  8
LAYER-1
  6
CONTINUOUS
 62
     7
  5
26E
 10
-0.69812
 20
-0.381609
 30
0.0
  0
VERTEX
  8
LAYER-1
  6
CONTINUOUS
 62
     7
  5
26F
 10
-0.697725
 20
-0.38465
 30
0.0
  0
VERTEX
  8
LAYER-1
  6
CONTINUOUS
 62
     7
  5
270
 10
-0.697294
 20
-0.38769
 30
0.0
  0
VERTEX
  8
LAYER-1
  6
CONTINUOUS
 62
     7
  5
271
 10
-0.696825
 20
-0.390721
 30
0.0
  0
VERTEX
  8
LAYER-1
  6
CONTINUOUS
 62
     7
  5
272
 10
-0.696319
 20
-0.393746
 30
0.0
  0
VERTEX
  8
LAYER-1
  6
CONTINUOUS
 62
     7
  5
273
 10
-0.695775
 20
-0.396769
 30
0.0
  0
VERTEX
  8
LAYER-1
  6
CONTINUOUS
 62
     7
  5
274
 10
-0.695196
 20
-0.39978
 30
0.0
  0
VERTEX
  8
LAYER-1
  6
CONTINUOUS
 62
     7
  5
275
 10
-0.694579
 20
-0.402785
 30
0.0
  0
VERTEX
  8
LAYER-1
  6
CONTINUOUS
 62
     7
  5
276
 10
-0.693924
 20
-0.405785
 30
0.0
  0
VERTEX
  8
LAYER-1
  6
CONTINUOUS
 62
     7
  5
277
 10
-0.693234
 20
-0.408773
 30
0.0
  0
VERTEX
  8
LAYER-1
  6
CONTINUOUS
 62
     7
  5
278
 10
-0.692506
 20
-0.411756
 30
0.0
  0
VERTEX
  8
LAYER-1
  6
CONTINUOUS
 62
     7
  5
279
 10
-0.691743
 20
-0.414727
 30
0.0
  0
VERTEX
  8
LAYER-1
  6
CONTINUOUS
 62
     7
  5
27A
 10
-0.690943
 20
-0.417688
 30
0.0
  0
VERTEX
  8
LAYER-1
  6
CONTINUOUS
 62
     7
  5
27B
 10
-0.690106
 20
-0.420642
 30
0.0
  0
VERTEX
  8
LAYER-1
  6
CONTINUOUS
 62
     7
  5
27C
 10
-0.689233
 20
-0.423582
 30
0.0
  0
VERTEX
  8
LAYER-1
  6
CONTINUOUS
 62
     7
  5
27D
 10
-0.688325
 20
-0.426512
 30
0.0
  0
VERTEX
  8
LAYER-1
  6
CONTINUOUS
 62
     7
  5
27E
 10
-0.68738
 20
-0.429433
 30
0.0
  0
VERTEX
  8
LAYER-1
  6
CONTINUOUS
 62
     7
  5
27F
 10
-0.6864
 20
-0.43234
 30
0.0
  0
VERTEX
  8
LAYER-1
  6
CONTINUOUS
 62
     7
  5
280
 10
-0.685383
 20
-0.435237
 30
0.0
  0
VERTEX
  8
LAYER-1
  6
CONTINUOUS
 62
     7
  5
281
 10
-0.684332
 20
-0.438118
 30
0.0
  0
VERTEX
  8
LAYER-1
  6
CONTINUOUS
 62
     7
  5
282
 10
-0.683246
 20
-0.440987
 30
0.0
  0
VERTEX
  8
LAYER-1
  6
CONTINUOUS
 62
     7
  5
283
 10
-0.682123
 20
-0.443845
 30
0.0
  0
VERTEX
  8
LAYER-1
  6
CONTINUOUS
 62
     7
  5
284
 10
-0.680966
 20
-0.446685
 30
0.0
  0
VERTEX
  8
LAYER-1
  6
CONTINUOUS
 62
     7
  5
285
 10
-0.679775
 20
-0.449512
 30
0.0
  0
VERTEX
  8
LAYER-1
  6
CONTINUOUS
 62
     7
  5
286
 10
-0.678548
 20
-0.452326
 30
0.0
  0
VERTEX
  8
LAYER-1
  6
CONTINUOUS
 62
     7
  5
287
 10
-0.677288
 20
-0.455122
 30
0.0
  0
VERTEX
  8
LAYER-1
  6
CONTINUOUS
 62
     7
  5
288
 10
-0.675992
 20
-0.457906
 30
0.0
  0
VERTEX
  8
LAYER-1
  6
CONTINUOUS
 62
     7
  5
289
 10
-0.674663
 20
-0.460671
 30
0.0
  0
VERTEX
  8
LAYER-1
  6
CONTINUOUS
 62
     7
  5
28A
 10
-0.673301
 20
-0.463419
 30
0.0
  0
VERTEX
  8
LAYER-1
  6
CONTINUOUS
 62
     7
  5
28B
 10
-0.671904
 20
-0.466153
 30
0.0
  0
VERTEX
  8
LAYER-1
  6
CONTINUOUS
 62
     7
  5
28C
 10
-0.670474
 20
-0.468866
 30
0.0
  0
VERTEX
  8
LAYER-1
  6
CONTINUOUS
 62
     7
  5
28D
 10
-0.669012
 20
-0.471562
 30
0.0
  0
VERTEX
  8
LAYER-1
  6
CONTINUOUS
 62
     7
  5
28E
 10
-0.667515
 20
-0.474243
 30
0.0
  0
VERTEX
  8
LAYER-1
  6
CONTINUOUS
 62
     7
  5
28F
 10
-0.665986
 20
-0.476902
 30
0.0
  0
VERTEX
  8
LAYER-1
  6
CONTINUOUS
 62
     7
  5
290
 10
-0.664423
 20
-0.479546
 30
0.0
  0
VERTEX
  8
LAYER-1
  6
CONTINUOUS
 62
     7
  5
291
 10
-0.66283
 20
-0.482167
 30
0.0
  0
VERTEX
  8
LAYER-1
  6
CONTINUOUS
 62
     7
  5
292
 10
-0.661205
 20
-0.484768
 30
0.0
  0
VERTEX
  8
LAYER-1
  6
CONTINUOUS
 62
     7
  5
293
 10
-0.659546
 20
-0.487352
 30
0.0
  0
VERTEX
  8
LAYER-1
  6
CONTINUOUS
 62
     7
  5
294
 10
-0.657858
 20
-0.489912
 30
0.0
  0
VERTEX
  8
LAYER-1
  6
CONTINUOUS
 62
     7
  5
295
 10
-0.656138
 20
-0.492451
 30
0.0
  0
VERTEX
  8
LAYER-1
  6
CONTINUOUS
 62
     7
  5
296
 10
-0.654385
 20
-0.494973
 30
0.0
  0
VERTEX
  8
LAYER-1
  6
CONTINUOUS
 62
     7
  5
297
 10
-0.652604
 20
-0.497469
 30
0.0
  0
VERTEX
  8
LAYER-1
  6
CONTINUOUS
 62
     7
  5
298
 10
-0.650789
 20
-0.499947
 30
0.0
  0
VERTEX
  8
LAYER-1
  6
CONTINUOUS
 62
     7
  5
299
 10
-0.648947
 20
-0.502399
 30
0.0
  0
VERTEX
  8
LAYER-1
  6
CONTINUOUS
 62
     7
  5
29A
 10
-0.647074
 20
-0.504828
 30
0.0
  0
VERTEX
  8
LAYER-1
  6
CONTINUOUS
 62
     7
  5
29B
 10
-0.64517
 20
-0.507237
 30
0.0
  0
VERTEX
  8
LAYER-1
  6
CONTINUOUS
 62
     7
  5
29C
 10
-0.643239
 20
-0.509619
 30
0.0
  0
VERTEX
  8
LAYER-1
  6
CONTINUOUS
 62
     7
  5
29D
 10
-0.641278
 20
-0.511978
 30
0.0
  0
VERTEX
  8
LAYER-1
  6
CONTINUOUS
 62
     7
  5
29E
 10
-0.639286
 20
-0.514315
 30
0.0
  0
VERTEX
  8
LAYER-1
  6
CONTINUOUS
 62
     7
  5
29F
 10
-0.637268
 20
-0.516625
 30
0.0
  0
VERTEX
  8
LAYER-1
  6
CONTINUOUS
 62
     7
  5
2A0
 10
-0.63522
 20
-0.518913
 30
0.0
  0
VERTEX
  8
LAYER-1
  6
CONTINUOUS
 62
     7
  5
2A1
 10
-0.633146
 20
-0.521172
 30
0.0
  0
VERTEX
  8
LAYER-1
  6
CONTINUOUS
 62
     7
  5
2A2
 10
-0.631044
 20
-0.523406
 30
0.0
  0
VERTEX
  8
LAYER-1
  6
CONTINUOUS
 62
     7
  5
2A3
 10
-0.628913
 20
-0.525617
 30
0.0
  0
VERTEX
  8
LAYER-1
  6
CONTINUOUS
 62
     7
  5
2A4
 10
-0.626756
 20
-0.5278
 30
0.0
  0
VERTEX
  8
LAYER-1
  6
CONTINUOUS
 62
     7
  5
2A5
 10
-0.624573
 20
-0.529956
 30
0.0
  0
VERTEX
  8
LAYER-1
  6
CONTINUOUS
 62
     7
  5
2A6
 10
-0.622362
 20
-0.532087
 30
0.0
  0
VERTEX
  8
LAYER-1
  6
CONTINUOUS
 62
     7
  5
2A7
 10
-0.620128
 20
-0.534188
 30
0.0
  0
VERTEX
  8
LAYER-1
  6
CONTINUOUS
 62
     7
  5
2A8
 10
-0.617865
 20
-0.536263
 30
0.0
  0
VERTEX
  8
LAYER-1
  6
CONTINUOUS
 62
     7
  5
2A9
 10
-0.615579
 20
-0.538309
 30
0.0
  0
VERTEX
  8
LAYER-1
  6
CONTINUOUS
 62
     7
  5
2AA
 10
-0.613269
 20
-0.540326
 30
0.0
  0
VERTEX
  8
LAYER-1
  6
CONTINUOUS
 62
     7
  5
2AB
 10
-0.610931
 20
-0.542317
 30
0.0
  0
VERTEX
  8
LAYER-1
  6
CONTINUOUS
 62
     7
  5
2AC
 10
-0.608572
 20
-0.544277
 30
0.0
  0
VERTEX
  8
LAYER-1
  6
CONTINUOUS
 62
     7
  5
2AD
 10
-0.606189
 20
-0.546208
 30
0.0
  0
VERTEX
  8
LAYER-1
  6
CONTINUOUS
 62
     7
  5
2AE
 10
-0.60378
 20
-0.548112
 30
0.0
  0
VERTEX
  8
LAYER-1
  6
CONTINUOUS
 62
     7
  5
2AF
 10
-0.60135
 20
-0.549984
 30
0.0
  0
VERTEX
  8
LAYER-1
  6
CONTINUOUS
 62
     7
  5
2B0
 10
-0.598895
 20
-0.551828
 30
0.0
  0
VERTEX
  8
LAYER-1
  6
CONTINUOUS
 62
     7
  5
2B1
 10
-0.59642
 20
-0.553639
 30
0.0
  0
VERTEX
  8
LAYER-1
  6
CONTINUOUS
 62
     7
  5
2B2
 10
-0.593923
 20
-0.55542
 30
0.0
  0
VERTEX
  8
LAYER-1
  6
CONTINUOUS
 62
     7
  5
2B3
 10
-0.591401
 20
-0.557173
 30
0.0
  0
VERTEX
  8
LAYER-1
  6
CONTINUOUS
 62
     7
  5
2B4
 10
-0.588861
 20
-0.558892
 30
0.0
  0
VERTEX
  8
LAYER-1
  6
CONTINUOUS
 62
     7
  5
2B5
 10
-0.586301
 20
-0.56058
 30
0.0
  0
VERTEX
  8
LAYER-1
  6
CONTINUOUS
 62
     7
  5
2B6
 10
-0.583716
 20
-0.562238
 30
0.0
  0
VERTEX
  8
LAYER-1
  6
CONTINUOUS
 62
     7
  5
2B7
 10
-0.581114
 20
-0.563862
 30
0.0
  0
VERTEX
  8
LAYER-1
  6
CONTINUOUS
 62
     7
  5
2B8
 10
-0.57849
 20
-0.565457
 30
0.0
  0
VERTEX
  8
LAYER-1
  6
CONTINUOUS
 62
     7
  5
2B9
 10
-0.57585
 20
-0.567017
 30
0.0
  0
VERTEX
  8
LAYER-1
  6
CONTINUOUS
 62
     7
  5
2BA
 10
-0.57319
 20
-0.568545
 30
0.0
  0
VERTEX
  8
LAYER-1
  6
CONTINUOUS
 62
     7
  5
2BB
 10
-0.570509
 20
-0.570041
 30
0.0
  0
VERTEX
  8
LAYER-1
  6
CONTINUOUS
 62
     7
  5
2BC
 10
-0.567813
 20
-0.571503
 30
0.0
  0
VERTEX
  8
LAYER-1
  6
CONTINUOUS
 62
     7
  5
2BD
 10
-0.565099
 20
-0.572932
 30
0.0
  0
VERTEX
  8
LAYER-1
  6
CONTINUOUS
 62
     7
  5
2BE
 10
-0.562364
 20
-0.574329
 30
0.0
  0
VERTEX
  8
LAYER-1
  6
CONTINUOUS
 62
     7
  5
2BF
 10
-0.559616
 20
-0.57569
 30
0.0
  0
VERTEX
  8
LAYER-1
  6
CONTINUOUS
 62
     7
  5
2C0
 10
-0.556848
 20
-0.57702
 30
0.0
  0
VERTEX
  8
LAYER-1
  6
CONTINUOUS
 62
     7
  5
2C1
 10
-0.554067
 20
-0.578313
 30
0.0
  0
VERTEX
  8
LAYER-1
  6
CONTINUOUS
 62
     7
  5
2C2
 10
-0.551271
 20
-0.579573
 30
0.0
  0
VERTEX
  8
LAYER-1
  6
CONTINUOUS
 62
     7
  5
2C3
 10
-0.548455
 20
-0.580799
 30
0.0
  0
VERTEX
  8
LAYER-1
  6
CONTINUOUS
 62
     7
  5
2C4
 10
-0.545629
 20
-0.58199
 30
0.0
  0
VERTEX
  8
LAYER-1
  6
CONTINUOUS
 62
     7
  5
2C5
 10
-0.542788
 20
-0.583145
 30
0.0
  0
VERTEX
  8
LAYER-1
  6
CONTINUOUS
 62
     7
  5
2C6
 10
-0.53993
 20
-0.584268
 30
0.0
  0
VERTEX
  8
LAYER-1
  6
CONTINUOUS
 62
     7
  5
2C7
 10
-0.537061
 20
-0.585353
 30
0.0
  0
VERTEX
  8
LAYER-1
  6
CONTINUOUS
 62
     7
  5
2C8
 10
-0.534176
 20
-0.586405
 30
0.0
  0
VERTEX
  8
LAYER-1
  6
CONTINUOUS
 62
     7
  5
2C9
 10
-0.531282
 20
-0.587419
 30
0.0
  0
VERTEX
  8
LAYER-1
  6
CONTINUOUS
 62
     7
  5
2CA
 10
-0.528375
 20
-0.588399
 30
0.0
  0
VERTEX
  8
LAYER-1
  6
CONTINUOUS
 62
     7
  5
2CB
 10
-0.525454
 20
-0.589343
 30
0.0
  0
VERTEX
  8
LAYER-1
  6
CONTINUOUS
 62
     7
  5
2CC
 10
-0.522524
 20
-0.590251
 30
0.0
  0
VERTEX
  8
LAYER-1
  6
CONTINUOUS
 62
     7
  5
2CD
 10
-0.519583
 20
-0.591123
 30
0.0
  0
VERTEX
  8
LAYER-1
  6
CONTINUOUS
 62
     7
  5
2CE
 10
-0.516629
 20
-0.591959
 30
0.0
  0
VERTEX
  8
LAYER-1
  6
CONTINUOUS
 62
     7
  5
2CF
 10
-0.513668
 20
-0.592758
 30
0.0
  0
VERTEX
  8
LAYER-1
  6
CONTINUOUS
 62
     7
  5
2D0
 10
-0.510694
 20
-0.593522
 30
0.0
  0
VERTEX
  8
LAYER-1
  6
CONTINUOUS
 62
     7
  5
2D1
 10
-0.507714
 20
-0.594248
 30
0.0
  0
VERTEX
  8
LAYER-1
  6
CONTINUOUS
 62
     7
  5
2D2
 10
-0.504725
 20
-0.594938
 30
0.0
  0
VERTEX
  8
LAYER-1
  6
CONTINUOUS
 62
     7
  5
2D3
 10
-0.501725
 20
-0.595592
 30
0.0
  0
VERTEX
  8
LAYER-1
  6
CONTINUOUS
 62
     7
  5
2D4
 10
-0.49872
 20
-0.596208
 30
0.0
  0
VERTEX
  8
LAYER-1
  6
CONTINUOUS
 62
     7
  5
2D5
 10
-0.495709
 20
-0.596787
 30
0.0
  0
VERTEX
  8
LAYER-1
  6
CONTINUOUS
 62
     7
  5
2D6
 10
-0.492686
 20
-0.597329
 30
0.0
  0
VERTEX
  8
LAYER-1
  6
CONTINUOUS
 62
     7
  5
2D7
 10
-0.489661
 20
-0.597835
 30
0.0
  0
VERTEX
  8
LAYER-1
  6
CONTINUOUS
 62
     7
  5
2D8
 10
-0.486626
 20
-0.598303
 30
0.0
  0
VERTEX
  8
LAYER-1
  6
CONTINUOUS
 62
     7
  5
2D9
 10
-0.48359
 20
-0.598734
 30
0.0
  0
VERTEX
  8
LAYER-1
  6
CONTINUOUS
 62
     7
  5
2DA
 10
-0.480548
 20
-0.599127
 30
0.0
  0
VERTEX
  8
LAYER-1
  6
CONTINUOUS
 62
     7
  5
2DB
 10
-0.477498
 20
-0.599483
 30
0.0
  0
VERTEX
  8
LAYER-1
  6
CONTINUOUS
 62
     7
  5
2DC
 10
-0.474448
 20
-0.599802
 30
0.0
  0
VERTEX
  8
LAYER-1
  6
CONTINUOUS
 62
     7
  5
2DD
 10
-0.471393
 20
-0.600083
 30
0.0
  0
VERTEX
  8
LAYER-1
  6
CONTINUOUS
 62
     7
  5
2DE
 10
-0.468332
 20
-0.600327
 30
0.0
  0
VERTEX
  8
LAYER-1
  6
CONTINUOUS
 62
     7
  5
2DF
 10
-0.465272
 20
-0.600533
 30
0.0
  0
VERTEX
  8
LAYER-1
  6
CONTINUOUS
 62
     7
  5
2E0
 10
-0.462206
 20
-0.600702
 30
0.0
  0
VERTEX
  8
LAYER-1
  6
CONTINUOUS
 62
     7
  5
2E1
 10
-0.459142
 20
-0.600833
 30
0.0
  0
VERTEX
  8
LAYER-1
  6
CONTINUOUS
 62
     7
  5
2E2
 10
-0.456076
 20
-0.600926
 30
0.0
  0
VERTEX
  8
LAYER-1
  6
CONTINUOUS
 62
     7
  5
2E3
 10
-0.453006
 20
-0.600982
 30
0.0
  0
VERTEX
  8
LAYER-1
  6
CONTINUOUS
 62
     7
  5
2E4
 10
-0.45
 20
-0.601
 30
0.0
  0
SEQEND
  8
LAYER-1
  6
CONTINUOUS
  5
2E5
  0
LINE
  8
LAYER-1
  6
MCDASH01
 62
     7
  5
2E6
 10
-0.07475
 20
-0.601
 30
0.0
 11
-0.07475
 21
-0.875
 31
0.0
  0
LINE
  8
LAYER-1
  6
MCDASH01
 62
     7
  5
2E7
 10
0.17475
 20
-0.601
 30
0.0
 11
0.17475
 21
-0.875
 31
0.0
  0
POLYLINE
  8
LAYER-1
  6
CONTINUOUS
 62
     7
  5
2E8
 66
     1
 10
0.0
 20
0.0
 30
0.0
 40
0.028
 41
0.028
  0
VERTEX
  8
LAYER-1
  6
CONTINUOUS
 62
     7
  5
2E9
 10
4.625
 20
0.375
 30
0.0
  0
VERTEX
  8
LAYER-1
  6
CONTINUOUS
 62
     7
  5
2EA
 10
4.75
 20
0.25
 30
0.0
  0
SEQEND
  8
LAYER-1
  6
CONTINUOUS
  5
2EB
  0
POLYLINE
  8
LAYER-1
  6
CONTINUOUS
 62
     7
  5
2EC
 66
     1
 10
0.0
 20
0.0
 30
0.0
 40
0.028
 41
0.028
  0
VERTEX
  8
LAYER-1
  6
CONTINUOUS
 62
     7
  5
2ED
 10
4.625
 20
-0.875
 30
0.0
  0
VERTEX
  8
LAYER-1
  6
CONTINUOUS
 62
     7
  5
2EE
 10
4.75
 20
-0.75
 30
0.0
  0
SEQEND
  8
LAYER-1
  6
CONTINUOUS
  5
2EF
  0
LINE
  8
LAYER-1
  6
CONTINUOUS
 62
     7
  5
2F0
 10
-4.75
 20
-0.9375
 30
0.0
 11
-4.75
 21
-1.375
 31
0.0
  0
LINE
  8
LAYER-1
  6
CONTINUOUS
 62
     7
  5
2F1
 10
-3.25
 20
-0.6875
 30
0.0
 11
-3.25
 21
-1.375
 31
0.0
  0
SOLID
  8
LAYER-1
 62
     7
  5
2F2
 10
-4.75
 20
-1.25
 30
0.0
 11
-4.625
 21
-1.216506
 31
0.0
 12
-4.625
 22
-1.283494
 32
0.0
 13
-4.625
 23
-1.283494
 33
0.0
  0
SOLID
  8
LAYER-1
 62
     7
  5
2F3
 10
-3.25
 20
-1.25
 30
0.0
 11
-3.375
 21
-1.283494
 31
0.0
 12
-3.375
 22
-1.216506
 32
0.0
 13
-3.375
 23
-1.216506
 33
0.0
  0
LINE
  8
LAYER-1
  6
CONTINUOUS
 62
     7
  5
2F4
 10
-4.75
 20
-1.25
 30
0.0
 11
-3.25
 21
-1.25
 31
0.0
  0
TEXT
  8
LAYER-1
 62
     7
  5
2F5
 10
-4.118055
 20
-1.340278
 30
0.0
 40
0.1
  1
1.5"
 41
0.590278
  0
LINE
  8
LAYER-1
  6
CONTINUOUS
 62
     7
  5
2F6
 10
-4.75
 20
-0.9375
 30
0.0
 11
-4.75
 21
-2.575
 31
0.0
  0
LINE
  8
LAYER-1
  6
CONTINUOUS
 62
     7
  5
2F7
 10
1.8
 20
-0.6875
 30
0.0
 11
1.8
 21
-2.575
 31
0.0
  0
SOLID
  8
LAYER-1
 62
     7
  5
2F8
 10
-4.75
 20
-2.45
 30
0.0
 11
-4.625
 21
-2.416506
 31
0.0
 12
-4.625
 22
-2.483494
 32
0.0
 13
-4.625
 23
-2.483494
 33
0.0
  0
SOLID
  8
LAYER-1
 62
     7
  5
2F9
 10
1.8
 20
-2.45
 30
0.0
 11
1.675
 21
-2.483494
 31
0.0
 12
1.675
 22
-2.416506
 32
0.0
 13
1.675
 23
-2.416506
 33
0.0
  0
LINE
  8
LAYER-1
  6
CONTINUOUS
 62
     7
  5
2FA
 10
-4.75
 20
-2.45
 30
0.0
 11
1.8
 21
-2.45
 31
0.0
  0
TEXT
  8
LAYER-1
 62
     7
  5
2FB
 10
-1.627778
 20
-2.540278
 30
0.0
 40
0.1
  1
6.55"
 41
0.611111
  0
LINE
  8
LAYER-1
  6
CONTINUOUS
 62
     7
  5
2FC
 10
-4.75
 20
-0.9375
 30
0.0
 11
-4.75
 21
-2.975
 31
0.0
  0
LINE
  8
LAYER-1
  6
CONTINUOUS
 62
     7
  5
2FD
 10
4.75
 20
-0.9375
 30
0.0
 11
4.75
 21
-2.975
 31
0.0
  0
SOLID
  8
LAYER-1
 62
     7
  5
2FE
 10
-4.75
 20
-2.85
 30
0.0
 11
-4.625
 21
-2.816506
 31
0.0
 12
-4.625
 22
-2.883494
 32
0.0
 13
-4.625
 23
-2.883494
 33
0.0
  0
SOLID
  8
LAYER-1
 62
     7
  5
2FF
 10
4.75
 20
-2.85
 30
0.0
 11
4.625
 21
-2.883494
 31
0.0
 12
4.625
 22
-2.816506
 32
0.0
 13
4.625
 23
-2.816506
 33
0.0
  0
LINE
  8
LAYER-1
  6
CONTINUOUS
 62
     7
  5
300
 10
-4.75
 20
-2.85
 30
0.0
 11
4.75
 21
-2.85
 31
0.0
  0
TEXT
  8
LAYER-1
 62
     7
  5
301
 10
-0.118055
 20
-2.940278
 30
0.0
 40
0.1
  1
9.5"
 41
0.590278
  0
LINE
  8
LAYER-1
  6
CONTINUOUS
 62
     7
  5
302
 10
-4.75
 20
-0.8125
 30
0.0
 11
-4.75
 21
-2.125
 31
0.0
  0
LINE
  8
LAYER-1
  6
CONTINUOUS
 62
     7
  5
303
 10
0.05
 20
-0.8125
 30
0.0
 11
0.05
 21
-2.125
 31
0.0
  0
SOLID
  8
LAYER-1
 62
     7
  5
304
 10
-4.75
 20
-2.0
 30
0.0
 11
-4.625
 21
-1.966506
 31
0.0
 12
-4.625
 22
-2.033494
 32
0.0
 13
-4.625
 23
-2.033494
 33
0.0
  0
SOLID
  8
LAYER-1
 62
     7
  5
305
 10
0.05
 20
-2.0
 30
0.0
 11
-0.075
 21
-2.033494
 31
0.0
 12
-0.075
 22
-1.966506
 32
0.0
 13
-0.075
 23
-1.966506
 33
0.0
  0
LINE
  8
LAYER-1
  6
CONTINUOUS
 62
     7
  5
306
 10
-4.75
 20
-2.0
 30
0.0
 11
0.05
 21
-2.0
 31
0.0
  0
TEXT
  8
LAYER-1
 62
     7
  5
307
 10
-2.468056
 20
-2.090278
 30
0.0
 40
0.1
  1
4.8"
 41
0.590278
  0
LINE
  8
LAYER-1
  6
CONTINUOUS
 62
     7
  5
308
 10
-4.1875
 20
-0.453
 30
0.0
 11
-4.25
 21
-0.453
 31
0.0
  0
LINE
  8
LAYER-1
  6
CONTINUOUS
 62
     7
  5
309
 10
-4.1875
 20
-0.047
 30
0.0
 11
-4.25
 21
-0.047
 31
0.0
  0
SOLID
  8
LAYER-1
 62
     7
  5
30A
 10
-4.125
 20
-0.453
 30
0.0
 11
-4.091506
 21
-0.578
 31
0.0
 12
-4.158494
 22
-0.578
 32
0.0
 13
-4.158494
 23
-0.578
 33
0.0
  0
LINE
  8
LAYER-1
  6
CONTINUOUS
 62
     7
  5
30B
 10
-4.125
 20
-0.453
 30
0.0
 11
-4.125
 21
-0.753
 31
0.0
  0
SOLID
  8
LAYER-1
 62
     7
  5
30C
 10
-4.125
 20
-0.047
 30
0.0
 11
-4.158494
 21
0.078
 31
0.0
 12
-4.091506
 22
0.078
 32
0.0
 13
-4.091506
 23
0.078
 33
0.0
  0
LINE
  8
LAYER-1
  6
CONTINUOUS
 62
     7
  5
30D
 10
-4.125
 20
-0.047
 30
0.0
 11
-4.125
 21
0.253
 31
0.0
  0
TEXT
  8
LAYER-1
 62
     7
  5
30E
 10
-4.277778
 20
-0.340278
 30
0.0
 40
0.1
  1
.406"
 41
0.611111
  0
LINE
  8
LAYER-1
  6
CONTINUOUS
 62
     7
  5
30F
 10
0.8125
 20
-0.601
 30
0.0
 11
0.75
 21
-0.601
 31
0.0
  0
LINE
  8
LAYER-1
  6
CONTINUOUS
 62
     7
  5
310
 10
0.8125
 20
0.101
 30
0.0
 11
0.75
 21
0.101
 31
0.0
  0
SOLID
  8
LAYER-1
 62
     7
  5
311
 10
0.875
 20
-0.601
 30
0.0
 11
0.841506
 21
-0.476
 31
0.0
 12
0.908494
 22
-0.476
 32
0.0
 13
0.908494
 23
-0.476
 33
0.0
  0
SOLID
  8
LAYER-1
 62
     7
  5
312
 10
0.875
 20
0.101
 30
0.0
 11
0.908494
 21
-0.024
 31
0.0
 12
0.841506
 22
-0.024
 32
0.0
 13
0.841506
 23
-0.024
 33
0.0
  0
LINE
  8
LAYER-1
  6
CONTINUOUS
 62
     7
  5
313
 10
0.875
 20
-0.601
 30
0.0
 11
0.875
 21
0.101
 31
0.0
  0
TEXT
  8
LAYER-1
 62
     7
  5
314
 10
0.722222
 20
-0.340278
 30
0.0
 40
0.1
  1
.702"
 41
0.611111
  0
LINE
  8
LAYER-1
  6
CONTINUOUS
 62
     7
  5
315
 10
1.737059
 20
0.016859
 30
0.0
 11
2.0
 21
0.25
 31
0.0
  0
LINE
  8
LAYER-1
  6
CONTINUOUS
 62
     7
  5
316
 10
2.0
 20
0.25
 30
0.0
 11
2.25
 21
0.25
 31
0.0
  0
SOLID
  8
LAYER-1
 62
     7
  5
317
 10
1.737059
 20
0.016859
 30
0.0
 11
1.664694
 21
-0.090427
 31
0.0
 12
1.620746
 22
-0.039871
 32
0.0
 13
1.620746
 23
-0.039871
 33
0.0
  0
LINE
  8
LAYER-1
  6
CONTINUOUS
 62
     7
  5
318
 10
1.55
 20
-0.149
 30
0.0
 11
1.737059
 21
0.016859
 31
0.0
  0
TEXT
  8
LAYER-1
 62
     7
  5
319
 10
2.25
 20
0.159722
 30
0.0
 40
0.1
  1
R .25"
 41
0.625
  0
TEXT
  8
LAYER-1
 62
     7
  5
31A
 10
-0.972222
 20
-3.5
 30
0.0
 40
0.222222
  1
Handle
 41
0.514706
  0
TEXT
  8
LAYER-1
 62
     7
  5
31B
 10
-0.972222
 20
-3.830556
 30
0.0
 40
0.222222
  1
Mat'l: Mild Steel
 41
0.514706
  0
LINE
  8
LAYER-1
  6
CONTINUOUS
 62
     7
  5
31C
 10
3.4375
 20
0.375
 30
0.0
 11
3.625
 21
0.375
 31
0.0
  0
LINE
  8
LAYER-1
  6
CONTINUOUS
 62
     7
  5
31D
 10
3.4375
 20
-0.875
 30
0.0
 11
3.625
 21
-0.875
 31
0.0
  0
SOLID
  8
LAYER-1
 62
     7
  5
31E
 10
3.5
 20
0.375
 30
0.0
 11
3.533494
 21
0.25
 31
0.0
 12
3.466506
 22
0.25
 32
0.0
 13
3.466506
 23
0.25
 33
0.0
  0
SOLID
  8
LAYER-1
 62
     7
  5
31F
 10
3.5
 20
-0.875
 30
0.0
 11
3.466506
 21
-0.75
 31
0.0
 12
3.533494
 22
-0.75
 32
0.0
 13
3.533494
 23
-0.75
 33
0.0
  0
LINE
  8
LAYER-1
  6
CONTINUOUS
 62
     7
  5
320
 10
3.5
 20
0.375
 30
0.0
 11
3.5
 21
-0.875
 31
0.0
  0
TEXT
  8
LAYER-1
 62
     7
  5
321
 10
3.347222
 20
-0.340278
 30
0.0
 40
0.1
  1
1.25"
 41
0.611111
  0
TEXT
  8
LAYER-1
 62
     7
  5
322
 10
-2.875
 20
0.597817
 30
0.0
 40
0.1
  1
12mm x 1.75mm pitch
 41
0.574735
  0
TEXT
  8
LAYER-1
 62
     7
  5
323
 10
-2.875
 20
0.42928
 30
0.0
 40
0.1
  1
1.100 min full thread
 41
0.574735
  0
SOLID
  8
LAYER-1
 62
     7
  5
324
 10
-3.5
 20
-0.047
 30
0.0
 11
-3.466506
 21
0.078
 31
0.0
 12
-3.408494
 22
0.044506
 32
0.0
 13
-3.408494
 23
0.044506
 33
0.0
  0
LINE
  8
LAYER-1
  6
CONTINUOUS
 62
     7
  5
325
 10
-3.5
 20
-0.047
 30
0.0
 11
-3.125
 21
0.625
 31
0.0
  0
LINE
  8
LAYER-1
  6
CONTINUOUS
 62
     7
  5
326
 10
-3.125
 20
0.625
 30
0.0
 11
-3.0
 21
0.625
 31
0.0
  0
LINE
  8
LAYER-1
  6
CONTINUOUS
 62
     7
  5
327
 10
-0.07475
 20
0.4375
 30
0.0
 11
-0.07475
 21
0.875
 31
0.0
  0
LINE
  8
LAYER-1
  6
CONTINUOUS
 62
     7
  5
328
 10
0.17475
 20
0.4375
 30
0.0
 11
0.17475
 21
0.875
 31
0.0
  0
SOLID
  8
LAYER-1
 62
     7
  5
329
 10
-0.07475
 20
0.75
 30
0.0
 11
-0.19975
 21
0.716506
 31
0.0
 12
-0.19975
 22
0.783494
 32
0.0
 13
-0.19975
 23
0.783494
 33
0.0
  0
LINE
  8
LAYER-1
  6
CONTINUOUS
 62
     7
  5
32A
 10
-0.07475
 20
0.75
 30
0.0
 11
-0.375
 21
0.75
 31
0.0
  0
SOLID
  8
LAYER-1
 62
     7
  5
32B
 10
0.17475
 20
0.75
 30
0.0
 11
0.29975
 21
0.783494
 31
0.0
 12
0.29975
 22
0.716506
 32
0.0
 13
0.29975
 23
0.716506
 33
0.0
  0
LINE
  8
LAYER-1
  6
CONTINUOUS
 62
     7
  5
32C
 10
0.17475
 20
0.75
 30
0.0
 11
0.47475
 21
0.75
 31
0.0
  0
TEXT
  8
LAYER-1
 62
     7
  5
32D
 10
-0.75
 20
0.659722
 30
0.0
 40
0.1
  1
.2495"
 41
0.625
  0
LINE
  8
LAYER-1
  6
CONTINUOUS
 62
     7
  5
32E
 10
-4.75
 20
-0.875
 30
0.0
 11
-4.75
 21
-1.75
 31
0.0
  0
LINE
  8
LAYER-1
  6
CONTINUOUS
 62
     7
  5
32F
 10
-0.699845
 20
-0.8125
 30
0.0
 11
-0.699845
 21
-1.75
 31
0.0
  0
SOLID
  8
LAYER-1
 62
     7
  5
330
 10
-4.75
 20
-1.625
 30
0.0
 11
-4.625
 21
-1.591506
 31
0.0
 12
-4.625
 22
-1.658494
 32
0.0
 13
-4.625
 23
-1.658494
 33
0.0
  0
SOLID
  8
LAYER-1
 62
     7
  5
331
 10
-0.699845
 20
-1.625
 30
0.0
 11
-0.824845
 21
-1.658494
 31
0.0
 12
-0.824845
 22
-1.591506
 32
0.0
 13
-0.824845
 23
-1.591506
 33
0.0
  0
LINE
  8
LAYER-1
  6
CONTINUOUS
 62
     7
  5
332
 10
-4.75
 20
-1.625
 30
0.0
 11
-0.699845
 21
-1.625
 31
0.0
  0
TEXT
  8
LAYER-1
 62
     7
  5
333
 10
-2.877701
 20
-1.715278
 30
0.0
 40
0.1
  1
4.05"
 41
0.611111
  0
TEXT
  8
LAYER-1
 62
     7
  5
334
 10
3.98
 20
1.346859
 30
0.0
 40
0.1
  1
.374
 41
0.648148
  0
ENDSEC
  0
EOF
